Sound will begin in 5 seconds

Althea acc darks solo2

01234567891011121314151617181920212223
E
B
G
D
A
E
B
0 1 2 3 4 5 6 7 8 9 10 11 12 13 14 15 16 17 18 19 20 21 22 23
Song Science #1: How Pros Use 6 Chords to Write Hit Songs
(/) Slide Up  (\) Slide Down  (h) Hammer On  (p) Pull Off  (b) Bend (r) Release (v) Vibrato

Stave 1:

E|------10-10-10p9----10----12-12---------------------------------
B|-----------------12----12----------10b12----b12r10-9-10p9-10v-v-
G|-9/11-----------------------------------------------------------
D|----------------------------------------------------------------
A|----------------------------------------------------------------
E|----------------------------------------------------------------

Stave 2:

E|-10-9----------------10-----------------------------11b12-12r11p10-----
B|------12v-v-12p10-12-------12-11-10------8-9-10-8-9----------------12v-
G|------------------------------------11\9-------------------------------
D|-----------------------------------------------------------------------
A|-----------------------------------------------------------------------
E|-----------------------------------------------------------------------

Stave 3:

E|------------------------------------------------------
B|---------10-7-8-9---7---------------------------------
G|------------------9---7-8-9-9p8p7---7p6---------------
D|-11-12-9--------------------------9-----9-8p7---9p8p7-
A|----------------------------------------------9-------
E|------------------------------------------------------

Stave 4:

E|-------------10b11-----------------------------------------12\4-
B|-12----12-12-------12v----10h12p10------8h9-9-------------------
G|--------------------------------------9-------9\0----11/13------
D|----------------------------------------------------------------
A|----------------------------------------------------------------
E|----------------------------------------------------------------

http://www.guitartabcreator.com
Guitar Tab Creator is intended to store guitar tab created through the tool. It currently does not support in-line text editing. Any text you place in here will be lost. If you need to comment on your tab, please use the "Tab Notes" section located below.