Sound will begin in 5 seconds

Althea 3-15-1990

01234567891011121314151617181920212223
E
B
G
D
A
E
B
0 1 2 3 4 5 6 7 8 9 10 11 12 13 14 15 16 17 18 19 20 21 22 23
(/) Slide Up  (\) Slide Down  (h) Hammer On  (p) Pull Off  (b) Bend (r) Release (v) Vibrato

Stave 1:

E|-------10v------------------------------------------|-10b11-12p10----10p9-----------------------------12----|-
B|-10/12----------------10-12p11p10p9--------9----10v-|---------------------12-12p10p9------------------------|-
G|--------------9-10-11------------------9-9----------|--------------------------------11p10p9----11/13-------|-
D|----------------------------------------------------|-------------------------------------------------------|-
A|----------------------------------------------------|-------------------------------------------------------|-
E|----------------------------------------------------|-------------------------------------------------------|-

Stave 2:

E|----------------------------------12-12-------12v-|-14b16----16-16-16----14-14b16r14-14----14b16-12v-|-
B|-17r15-15p14p12----14-12----12b14----------14-----|--------------------------------------------------|-
G|--------------------------------------------------|--------------------------------------------------|-
D|--------------------------------------------------|--------------------------------------------------|-
A|--------------------------------------------------|--------------------------------------------------|-
E|--------------------------------------------------|--------------------------------------------------|-

Stave 3:

E|-16p15p14-16p14-12\10-------10p9--------------------------------------------|-
B|---------------------------------12---------10----9---------------------10v-|-
G|-------------------------11------------9-11---------11-9----9-11-9----9-----|-
D|----------------------------------------------------------------------------|-
A|----------------------------------------------------------------------------|-
E|----------------------------------------------------------------------------|-

Stave 4:

E|----------------------------------------------------------------14-12----12--------------|-
B|-10-10-9-10-11-12v----12p11p10-12-10-9----10-9------------------------------14----14-12v-|-
G|-----------------------------------------------11p10p9----11/14--------------------------|-
D|-----------------------------------------------------------------------------------------|-
A|-----------------------------------------------------------------------------------------|-
E|-----------------------------------------------------------------------------------------|-

Stave 5:

E|-10--------------------------------------------------|-
B|----12----12-10----10-9-10b12v----10p9-9---------10v-|-
G|-----------------------------------------11----9-----|-
D|-----------------------------------------------------|-
A|-----------------------------------------------------|-
E|-----------------------------------------------------|-

Stave 6:

E|---------------------------------------------------------------------------12--------------------|-
B|-10p9---------------------------------------10----12-12----9---------------------12--------------|-
G|------11-10-9----------9-11p9-------9-11-11------------------11-9----11/13----------14b16-14-13v-|-
D|--------------11/12-----------12-----------------------------------------------------------------|-
A|-------------------------------------------------------------------------------------------------|-
E|-------------------------------------------------------------------------------------------------|-

http://www.guitartabcreator.com
Guitar Tab Creator is intended to store guitar tab created through the tool. It currently does not support in-line text editing. Any text you place in here will be lost. If you need to comment on your tab, please use the "Tab Notes" section located below.