Sound will begin in 5 seconds

Aiko Aiko

01234567891011121314151617181920212223
E
B
G
D
A
E
B
0 1 2 3 4 5 6 7 8 9 10 11 12 13 14 15 16 17 18 19 20 21 22 23
Song Science #1: How Pros Use 6 Chords to Write Hit Songs
(/) Slide Up  (\) Slide Down  (h) Hammer On  (p) Pull Off  (b) Bend (r) Release (v) Vibrato

Stave 1:

E|-----------------------------------------------------------
B|-----------------------------------------------------------
G|-------------------7-7-----------7-9-10----9----7----------
D|-7h9-7-------7-9-7-----9v----7-9------------------9-7v-v-v-
A|-----------------------------------------------------------
E|-----------------------------------------------------------

Stave 2:

E|--------------------------------------------------
B|---------10---------------------------------------
G|------------12-11----9-------9--------------------
D|-9-10-11----------11---10-11---10h11p10-----------
A|----------------------------------------12v-v-v-v-
E|--------------------------------------------------

Stave 3:

E|------------------------------------10-------10----10----10----10-10----10-----------
B|------------------------------------------12----12----12----12-------12----12b12-10v-
G|-------------------------------7/11--------------------------------------------------
D|------------9------------------------------------------------------------------------
A|-12-12-9-10---12-9-10----7-8-9-------------------------------------------------------
E|-------------------------------------------------------------------------------------

Stave 4:

E|-------12-15-14-12-------14--------------------------------------------------
B|-13-14-------------13-14----12v----15----------------------------------------
G|--------------------------------15----15-14-12-14-13-14-13-12-10-11----------
D|--------------------------------------------------------------------12v-v----
A|-----------------------------------------------------------------------------
E|-----------------------------------------------------------------------------

Stave 5:

E|-------------------------12----10----
B|----10----10----12-10----------------
G|-11----11----11-------11----11-------
D|----------------------------------11\
A|-------------------------------------
E|-------------------------------------

http://www.guitartabcreator.com
Guitar Tab Creator is intended to store guitar tab created through the tool. It currently does not support in-line text editing. Any text you place in here will be lost. If you need to comment on your tab, please use the "Tab Notes" section located below.