Sound will begin in 5 seconds

Too Much Monkey Bussiness Riff and Solo

Chords
01234567891011121314151617181920212223
E
B
G
D
A
E
B
0 1 2 3 4 5 6 7 8 9 10 11 12 13 14 15 16 17 18 19 20 21 22 23
Song Science #1: How Pros Use 6 Chords to Write Hit Songs
(/) Slide Up  (\) Slide Down  (h) Hammer On  (p) Pull Off  (b) Bend (r) Release (v) Vibrato

Stave 1:

E|--5----5--5--5------5--
B|--5----5--5--5------5--
G|--6----6--6--6------6--
D|-----------------------
A|-----------------------
E|-----------------------

Stave 2:

E|--5----5--5--5--10--11--12--
B|--5----5--5--5--10--11--12--
G|--6----6--6--6--11--12--13--
D|---------------------------
A|---------------------------
E|---------------------------

Stave 3:

E|-------3-------3-------3-------3-------3-------3-------3-------3-------3-------3--
B|--3\5-----3\5-----3\5-----3\5-----3\5-----3\5-----3\5-----3\5-----3\5-----3\5-----
G|----------------------------------------------------------------------------------
D|----------------------------------------------------------------------------------
A|----------------------------------------------------------------------------------
E|----------------------------------------------------------------------------------

Stave 4:

E|----5--5--5--5--5-----------5--5--5--5--5-----------5--5--5--5--5-----------5--5--5--5--5-----------
B|----5--5--5--5--5--7--5-----5--5--5--5--5--7--5-----5--5--5--5--5--7--5-----5--5--5--5--5--7--5-----
G|-------------------7--5--------------------7--5--------------------7--5--------------------7--5-----
D|-------------------------7-----------------------7-----------------------7-----------------------7--
A|----------------------------------------------------------------------------------------------------
E|----------------------------------------------------------------------------------------------------

Stave 5:

E|--5--5--5--8b9--5------------------------------------------------5-----------------
B|--5--5--5--7-8--5--7--5-----5--7-8--5-----5--5--7--5-----5--7b8--5--7--5-----------
G|-------------------7--5-----5--7b8--5-----5--5--7--5-----5--7-8-----7--5-----------
D|-------------------------7-------------7--------------7-------------------7--7--7--
A|-----------------------------------------------------------------------------------
E|-----------------------------------------------------------------------------------

Stave 6:

E|-------------------------------------------------------------------------------------------
B|--5--------5-----5--7b8b8b8b8b8b8r7--5-----5--------5-----5--7b8b8b8b8b8b8b8b8r7-----------
G|--5--------5-----5--7-8-8-8-8-8-8-7--5-----5--------5-----5--7-8-8-8-8-8-8-8-8-7--5-----5--
D|-----7--7-----7-------------------------7-----7--7-----7-----------------------------7-----
A|-------------------------------------------------------------------------------------------
E|-------------------------------------------------------------------------------------------

Stave 7:

E|--------5--8--5--------5--7--5--------------------------5-----------
B|--5--7-----------5--8-----------8--7--5-----------------5-----------
G|-----------------------------------------7--5-----5--7-----7--5-----
D|-----------------------------------------------7-----------------7--
A|--------------------------------------------------------------------
E|--------------------------------------------------------------------

Stave 8:

E|------------------------------------------------------------------------
B|--8--8--8--7--5-----7-8--5-----------7-8--8--5-----------------------5--
G|--9--9--9--7--5-----7b8--5-----5-----7b8--------7--5-----5--7--5-----5--
D|-----------------7----------7-----7-------------------7-----------7-----
A|------------------------------------------------------------------------
E|------------------------------------------------------------------------

Stave 9:

E|--------------------------------5--
B|--7b8--5-----------5-----------7--
G|--7-8--5-----5--7-----7--5-----6--
D|-----------7-----------------7--5--
A|--------------------------------7--
E|-----------------------------------

http://www.guitartabcreator.com
Guitar Tab Creator is intended to store guitar tab created through the tool. It currently does not support in-line text editing. Any text you place in here will be lost. If you need to comment on your tab, please use the "Tab Notes" section located below.