Sound will begin in 5 seconds

That's Alright (Mama) Solo

01234567891011121314151617181920212223
E
B
G
D
A
E
B
0 1 2 3 4 5 6 7 8 9 10 11 12 13 14 15 16 17 18 19 20 21 22 23
Song Science #1: How Pros Use 6 Chords to Write Hit Songs
(/) Slide Up  (\) Slide Down  (h) Hammer On  (p) Pull Off  (b) Bend (r) Release (v) Vibrato

Stave 1:

E|---------------------------------------------------------------------------------------
B|--3-5--3--2--3-5----5--3--2--3--5----5--3--2--3-5--7--5--7b9b9b9r7--5-----------------
G|--4\6--4--2--4\6----6--4--2--4--6----6--4--2--4\6----------------------7--6--4--------
D|---------------------------------------------------------------------------------7--6--
A|---------------------------------------------------------------------------------------
E|---------------------------------------------------------------------------------------

Stave 2:

E|----5-----5-----5----5-----5-----5-------------3--3--------------3--3--------
B|------------------------------------5----5--0--------5--3--5--0--------5--3--
G|-------5-----5----------5-----5----------------------------------------------
D|-----------------------------------------------------------------------------
A|-----------------------------------------------------------------------------
E|-----------------------------------------------------------------------------

Stave 3:

E|--5-------------------------------
B|-----7--5-----5----5--5--7--7--7--
G|-----------6-------6--6--6--6--6--
D|-------------------7--7--5--5--5--
A|-------------------7--7--7--7--7--
E|----------------------------------

Stave 4:

E|-----------------------------------------------------------------------------------
B|--3-5--3--2--3-5----5--3--2--3-5----5--3--2--3-5--7--5--7b9b9b9r7--5--------------
G|--4\6--4--2--4\6----6--4--2--4\6----6--4--2--4\6----------------------7--6--4-----
D|--------------------------------------------------------------------------------7--
A|-----------------------------------------------------------------------------------
E|-----------------------------------------------------------------------------------

Stave 5:

E|--5-----5-----5--5-----5-----5--7-----7----7--7--7--7-9--
B|-------------------------------------------7--7--7--7\9--
G|-----5-----5--------5-----5--------7---------------------
D|---------------------------------------------------------
A|---------------------------------------------------------
E|---------------------------------------------------------

Stave 6:

E|--5-----5--------5-----5--5--
B|-----7-----7--------7--7--7--
G|--------------6--------------
D|-----------------------------
A|-----------------------------
E|-----------------------------

http://www.guitartabcreator.com
Guitar Tab Creator is intended to store guitar tab created through the tool. It currently does not support in-line text editing. Any text you place in here will be lost. If you need to comment on your tab, please use the "Tab Notes" section located below.