Sound will begin in 5 seconds

Sweet Little Sixteen Intro and Solo

Chords
01234567891011121314151617181920212223
E
B
G
D
A
E
B
0 1 2 3 4 5 6 7 8 9 10 11 12 13 14 15 16 17 18 19 20 21 22 23
Song Science #1: How Pros Use 6 Chords to Write Hit Songs
(/) Slide Up  (\) Slide Down  (h) Hammer On  (p) Pull Off  (b) Bend (r) Release (v) Vibrato

Stave 1:

E|--9--11--11-9---9--7--7-6--6/5--
B|--10\12--12/10--10/9--9/8--8-7--
G|--------------------------------
D|--------------------------------
A|--------------------------------
E|--------------------------------

Stave 2:

E|--9--11--11--11--11-9---9---9---9--7--7--7--7-5--5--5--5-4--4--4--4-2--2--2--2-0--0--0-------0--0--0--
B|--10\12--12--12--12/10--10--10--10/9--9--9--9/7--7--7--7/5--5--5--5/4--4--4--4/2--2--2-------0--0--0--
G|----------------------------------------------------------------------------------------2\4--4--4--4--
D|------------------------------------------------------------------------------------------------------
A|------------------------------------------------------------------------------------------------------
E|------------------------------------------------------------------------------------------------------

Stave 3:

E|-------2-------2-------2-------2---------2-12--12--12--12--12--12--12--12--12--15--
B|-------2-------2-------2-------2---------2-12--12--12--12--12--12--12--12--12--15--
G|--3b4-----3b4-----3b4-----3b4-----3b4----2\12--12--12--12--12--12--12--12--12------
D|-----------------------------------------------------------------------------------
A|-----------------------------------------------------------------------------------
E|-----------------------------------------------------------------------------------

Stave 4:

E|--12-----------------------------12--------------------------------------
B|--12--14--12------12--12---------12--14--12--14--12------12--14--12------
G|------14--12--14--12--12--14b16------14--12--14--12------12--14--12------
D|--------------14-------------------------------------14--------------14--
A|-------------------------------------------------------------------------
E|-------------------------------------------------------------------------

Stave 5:

E|----------------------------------------------------------------------------------
B|--14-15-15-14--14-15-15-15-15-14--12--14--12--------------12----------12------12--
G|--14b15b15r14--14b15b15b15b15r14--12--14--12--------------12----------12------12--
D|----------------------------------------------14--14--14------14--14------14------
A|----------------------------------------------------------------------------------
E|----------------------------------------------------------------------------------

Stave 6:

E|--------------------------------12--12-14--12--12-
B|--14--12------12--14--12--------12--12-14--12--12-
G|--14--12--14--12--14--12--14----13--13h14--13--13/
D|----------14--------------14----------------------
A|--------------------------------------------------
E|--------------------------------------------------

http://www.guitartabcreator.com
Guitar Tab Creator is intended to store guitar tab created through the tool. It currently does not support in-line text editing. Any text you place in here will be lost. If you need to comment on your tab, please use the "Tab Notes" section located below.