Sound will begin in 5 seconds

Some Other Guy

Chords
01234567891011121314151617181920212223
E
B
G
D
A
E
B
0 1 2 3 4 5 6 7 8 9 10 11 12 13 14 15 16 17 18 19 20 21 22 23
Song Science #1: How Pros Use 6 Chords to Write Hit Songs
(/) Slide Up  (\) Slide Down  (h) Hammer On  (p) Pull Off  (b) Bend (r) Release (v) Vibrato

Stave 1:

E|--------------------------------------------------------------------------------------------
B|--12-14-14-14-12------------------12--12--12--12--12----12-14-12----12-14-14-12-------------
G|--12-14-14-14-12--10------10------10--10--10--10--10----12b14r12----12b14b14r12--12p10------
D|--12b14b14b14r12--10--12--10--12--11--11--11--11--11------------------------------------12--
A|----------------------12------12------------------------------------------------------------
E|--------------------------------------------------------------------------------------------

Stave 2:

E|----------------------------------------------------------------------------
B|----------------------------------------------------------------------------
G|-----14--12--14-------14--14--12--14-------14--12--14-------14--14--12--14--
D|-----14--12--14-------14--14--12--14-------14--12--14-------14--14--12--14--
A|--0----------------0--------------------0----------------0------------------
E|----------------------------------------------------------------------------

Stave 3:

E|----------------------------------------------------------10---------------------------------------
B|--12-14-12----12-14-14-12-----------------------------10------10-----------------------------------
G|--12b14r12----12b14b14r12--12p10------10--11--12--13----------------12b14--12--12p10---------------
D|----------------------------------12--------------------------------------------------12----12--0--
A|---------------------------------------------------------------------------------------------------
E|---------------------------------------------------------------------------------------------------

http://www.guitartabcreator.com
Guitar Tab Creator is intended to store guitar tab created through the tool. It currently does not support in-line text editing. Any text you place in here will be lost. If you need to comment on your tab, please use the "Tab Notes" section located below.