Sound will begin in 5 seconds

So How Come No One (Loves Me) Intro, Riff, Solo & Ending

Chords
01234567891011121314151617181920212223
E
B
G
D
A
E
B
0 1 2 3 4 5 6 7 8 9 10 11 12 13 14 15 16 17 18 19 20 21 22 23
Song Science #1: How Pros Use 6 Chords to Write Hit Songs
(/) Slide Up  (\) Slide Down  (h) Hammer On  (p) Pull Off  (b) Bend (r) Release (v) Vibrato

Stave 1:

E|--3--3--3--3--3--3--3--3--3--
B|--3--3--3--3--3--3--3--3--3--
G|--4--4--4--4--4--4--4--4--4--
D|--3--3--3--3--3--3--3--3--3--
A|--5--5--7--5--5--5--7--5--5--
E|--3--3--3--3--3--3--3--3--3--

Stave 2:

E|-------------------
B|--5-6--------------
G|--6\7--5--3--------
D|-------------5--5--
A|-------------------
E|-------------------

Stave 3:

E|--3--3--3--3--3--3--0--7--7--7--7--7--7--6--6--6--6--6--5--3--3--3-----3--3--
B|--3--3--3--3--3--3--0--8--8--8--8--8--8--8--8--8--8--8--7--3--3--3-----5--3--
G|-----------------------------------------------------------------------------
D|-----------------------------------------------------------------------------
A|-----------------------------------------------------------------------------
E|-----------------------------------------------------------------------------

Stave 4:

E|--10-----10--10--10--10-8---------8---8---8---8---10--8---3--3--3--3--3--3--1--0-----3--3--3--3--3--3--
B|--12-----12--12--12--12/10--------10--10--10--10--12--10--3--3--3--3--3--3--1--1-----6--6--6--6--6--6--
G|----------------------------------------------------------4--4--4--4--4--4--2--0-----4--4--4--4--4--4--
D|----------------------------------------------------------5--5--5--5--5--5--3--2-----3--3--3--3--3--3--
A|----------------------------------------------------------5--5--5--5--5--5--3--3-----5--5--5--5--5--5--
E|----------------------------------------------------------3--3--3--3--3--3--1--------3--3--3--3--3--3--

Stave 5:

E|--3--3--3--3--3--3--1--0--3--8---9---10-----10--
B|--3--3--3--3--3--3--1--1--3--10--11--12-----10--
G|--4--4--4--4--4--4--2--0--4--10--11--12-----10--
D|--5--5--5--5--5--5--3--2--5--10--11--12-----9---
A|--5--5--5--5--5--5--3--3--5--8---9---10-----10--
E|--3--3--3--3--3--3--1-----3---------------------

http://www.guitartabcreator.com
Guitar Tab Creator is intended to store guitar tab created through the tool. It currently does not support in-line text editing. Any text you place in here will be lost. If you need to comment on your tab, please use the "Tab Notes" section located below.