Sound will begin in 5 seconds

Slow Down BBC

Chords
01234567891011121314151617181920212223
E
B
G
D
A
E
B
0 1 2 3 4 5 6 7 8 9 10 11 12 13 14 15 16 17 18 19 20 21 22 23
Song Science #1: How Pros Use 6 Chords to Write Hit Songs
(/) Slide Up  (\) Slide Down  (h) Hammer On  (p) Pull Off  (b) Bend (r) Release (v) Vibrato

Stave 1:

E|-----------------------------------------------------------------------------------------------------
B|-----------------------------------------------------------------------------------------------------
G|-----------------------------------------------------------------------------------------------3-----
D|--------1--------------------------------1--3--3\5--5/3--1-----------1--------1-----1--3--3\5--------
A|-----3-----3--3--3--3-----1--3--3-----3---------------------3--3--3-----3--3-----3-------------------
E|--3--------------------3-----------------------------------------------------------------------------

Stave 2:

E|------------------------------------------8-------------------------------------------------
B|--------------4-----6b8--8r6--4--------------5--6--7--8-----7--8--8p6-----------------------
G|--5--5-----5-----5---------------5--5----------------------------------8--5-----8--5--8--5--
D|--------------------------------------------------------------------------------------------
A|--------------------------------------------------------------------------------------------
E|--------------------------------------------------------------------------------------------

Stave 3:

E|-----------------------------------------------------------------------------------------------
B|--------8-11-----8------8---------8-----10-11-----10-11-----10--8-------------10-11-----10-11--
G|--8--5--8\11-----8------8---------8-----10\11-----10\11-----10--8--10--10-----10\11-----10\11--
D|--------------------10-----10--------------------------------------10--10----------------------
A|-----------------------------------------------------------------------------------------------
E|-----------------------------------------------------------------------------------------------

Stave 4:

E|-------------------------------8---------11-----11p8----------------------------------------------
B|--10--8---------------------8-----11--8---------------11p8-------------------8------8------10-11--
G|--10--8----------8--10--10----------------------------------10p8-------------8------8------10\11--
D|---------10--10---------------------------------------------------10-----10-----10-----10---------
A|--------------------------------------------------------------------------------------------------
E|--------------------------------------------------------------------------------------------------

Stave 5:

E|----------------------------------------------------------------------------------------------
B|--8------8--------------------6b8b8r6--6--4---------------------------------------------------
G|--8------8-------------8---------------------5-----5--3---------------------------------------
D|-----10-----10-----10-----10-----------------------------5--3--3--------3--3\5--5--5/3--1-----
A|------------------------------------------------------------------3------------------------3--
E|----------------------------------------------------------------------------------------------

http://www.guitartabcreator.com
Guitar Tab Creator is intended to store guitar tab created through the tool. It currently does not support in-line text editing. Any text you place in here will be lost. If you need to comment on your tab, please use the "Tab Notes" section located below.