Sound will begin in 5 seconds

Shimmy Shimmy

Chords
01234567891011121314151617181920212223
E
B
G
D
A
E
B
0 1 2 3 4 5 6 7 8 9 10 11 12 13 14 15 16 17 18 19 20 21 22 23
Song Science #1: How Pros Use 6 Chords to Write Hit Songs
(/) Slide Up  (\) Slide Down  (h) Hammer On  (p) Pull Off  (b) Bend (r) Release (v) Vibrato

Stave 1:

E|--5-------5--5-----8----------------------------------------------------------------------------
B|-----8b9--------5-------------------------------------------5--5-------5-------5-------5-----5--
G|----------------------7p5--5--------------------------5--7--------8/7-----8/7-----8/7-----8-----
D|------------------------------7--7--7--7--7-----7--7--------------------------------------------
A|------------------------------------------------------------------------------------------------
E|------------------------------------------------------------------------------------------------

Stave 2:

E|---------------------------------------------------------------------------------12----------
B|-----------------------------------------------10--13--10--13b14--10--13b14--10------10--10--
G|---------------------------------------------------------------------------------------------
D|--10--10--10--10--10--10--10--10--10--9--8--7------------------------------------------------
A|---------------------------------------------------------------------------------------------
E|---------------------------------------------------------------------------------------------

Stave 3:

E|-------------------------------12-----------------------------------------
B|--13b14--10--13b14--10--13b14------10-----5-----8/7--5--7--5--------------
G|--------------------------------------------------------------5--5--5--5--
D|--------------------------------------------------------------------------
A|--------------------------------------------------------------------------
E|--------------------------------------------------------------------------

Stave 4:

E|--------------------------------------------------------------------------------------
B|--7-8--8--8--7-8--8--8--8--8--7-8--8--8--8--8--5--7--5-----------------5--8--5--------
G|--8\9--9--9--8\9--9--9--9--9--8\9--9--9--9--9--5--7--5-----------5--7-----------7--5--
D|--------------------------------------------------------7-----7-----------------------
A|--------------------------------------------------------------------------------------
E|--------------------------------------------------------------------------------------

Stave 5:

E|----------12-----14b16-----12------------------------------------------------
B|--12--15-----------------------14--12--14--12---------11--10---------11--10--
G|-----------------------------------------------10\12----------10\12----------
D|-----------------------------------------------------------------------------
A|-----------------------------------------------------------------------------
E|-----------------------------------------------------------------------------

Stave 6:

E|-------------------------------------------12--12--12--12--11-----12--11--10------10--12--11--10--8--
B|---------------------------------------10-------------------------------------12------12--11--10--8--
G|--10\12--12--12--12--12--12/10--8--------------------------------------------------------------------
D|-----------------------------------10----------------------------------------------------------------
A|-----------------------------------------------------------------------------------------------------
E|-----------------------------------------------------------------------------------------------------

Stave 7:

E|----------------------------------------------------------------------------------
B|--10--8-----------------8------------------------------------8------8-------------
G|--9------10--8------11-----10--8---------10--8h10--10--8h10-----10-----10--8------
D|----------------10----------------10------------------------------------------10--
A|----------------------------------------------------------------------------------
E|----------------------------------------------------------------------------------

Stave 8:

E|-----------------------3--
B|-----------------------5--
G|-----------------------4--
D|-----------------------3--
A|--------------0--2--3--5--
E|--0--1--1--3-----------3--

http://www.guitartabcreator.com
Guitar Tab Creator is intended to store guitar tab created through the tool. It currently does not support in-line text editing. Any text you place in here will be lost. If you need to comment on your tab, please use the "Tab Notes" section located below.