Sound will begin in 5 seconds

Red Sails In The Sunset

Chords
01234567891011121314151617181920212223
E
B
G
D
A
E
B
0 1 2 3 4 5 6 7 8 9 10 11 12 13 14 15 16 17 18 19 20 21 22 23
Song Science #1: How Pros Use 6 Chords to Write Hit Songs
(/) Slide Up  (\) Slide Down  (h) Hammer On  (p) Pull Off  (b) Bend (r) Release (v) Vibrato

Stave 1:

E|------8--10b11--11r10--8-----------------------------------------------------------------5----------
B|--10----------------------10--5-------5-----------------------------------------------5--5----------
G|---------------------------------5\7--------7p5--5-----7p5--5--------------5--7--7\9--------7p5--5--
D|----------------------------------------------------7----------7--7-----7---------------------------
A|----------------------------------------------------------------------------------------------------
E|----------------------------------------------------------------------------------------------------

Stave 2:

E|----------------------8-----------------------------5--5--5--5--5--5--5--5--5--5--5--5--5--
B|-------8--8-----8h10--------10/8--5-----5-----------5--5--5--5--5--5--5--5--5--5--5--5--5--
G|--7\9--------------------------------7-----7--5-----6--6--6--6--6--6--6--6--6--6--6--6--6--
D|-------------------------------------------------7-----------------------------------------
A|-------------------------------------------------------------------------------------------
E|-------------------------------------------------------------------------------------------

Stave 3:

E|-----------------------------------------------------------------------------------------------
B|--7-9---7-9---7-9---7-9---7-9---7-9------5--7--------------------------------------8-----------
G|--8\10--8\10--8\10--8\10--8\10--8\10--7--5--7------------------------5--7-----7\9-----7--5-----
D|--------------------------------------7-------------5-------------7-------------------------7--
A|-----------------------------------------------5h7--------7--7p5-------------------------------
E|-----------------------------------------------------------------------------------------------

Stave 4:

E|-------------------------------------------5-------5-----------------
B|-----------------5--8--------------5---------------------------------
G|-----------5--7--------7--5-----------5h7-----5h7-----7--5-----------
D|--5--7--7--------------------7--5---------------------------7--5--7--
A|---------------------------------------------------------------------
E|---------------------------------------------------------------------

Stave 5:

E|--------------------------12--
B|--------------------------12--
G|-----------------5--7--8--12--
D|--7--5--6--6--8-----------11--
A|--------------------------12--
E|------------------------------

http://www.guitartabcreator.com
Guitar Tab Creator is intended to store guitar tab created through the tool. It currently does not support in-line text editing. Any text you place in here will be lost. If you need to comment on your tab, please use the "Tab Notes" section located below.