Sound will begin in 5 seconds

Ooh! My Soul

Chords
01234567891011121314151617181920212223
E
B
G
D
A
E
B
0 1 2 3 4 5 6 7 8 9 10 11 12 13 14 15 16 17 18 19 20 21 22 23
Song Science #1: How Pros Use 6 Chords to Write Hit Songs
(/) Slide Up  (\) Slide Down  (h) Hammer On  (p) Pull Off  (b) Bend (r) Release (v) Vibrato

Stave 1:

E|------------------------------------------------------------------
B|--2-3--2-3--2-3--2-3--2-3--3-2--0----------------------3----------
G|--3\4--3\4--3\4--3\4--3\4--4/3--0--------0--2-----2\4-----4/2--0--
D|-----------------------------------2--2---------------------------
A|------------------------------------------------------------------
E|------------------------------------------------------------------

Stave 2:

E|--10-----10--10--12--12--12--12--12--10--10--10--10--10--7-------------------------------------------
B|--12-----12--12--14--14--14--14--14--12--12--12--12--12--9--------8--10--10--10b11--10b11--10--8-----
G|---------------------------------------------------------------9----------------------------------9--
D|-----------------------------------------------------------------------------------------------------
A|-----------------------------------------------------------------------------------------------------
E|-----------------------------------------------------------------------------------------------------

Stave 3:

E|---------------------------------------------------------------
B|--12--11--10--8-----------4--------3---------------------------
G|-----------------------5--------4-----4/2--0-------------------
D|----------------------------------------------0--2--2-------0--
A|-------------------------------------------------------0h2-----
E|---------------------------------------------------------------

Stave 4:

E|-------------------------------------------------
B|-------------------------------------------------
G|--------0-----------0--------0-----0--2--2\4--4--
D|--2--2-----2--2--2-----2--2-----2----------------
A|-------------------------------------------------
E|-------------------------------------------------

Stave 5:

E|----------------7----------------7------------------------------7-----
B|--5--5--8b9--5-----5--5--8b9--5-----5--5--8b9--5--------5--8b9-----5--
G|----------------------------------------------------------------------
D|----------------------------------------------------------------------
A|----------------------------------------------------------------------
E|----------------------------------------------------------------------

Stave 6:

E|----------------------3-------------------------------------
B|-----3--5----------3-------------3--------------------------
G|--4-----------2\4--------4/2--0-----------------------------
D|------------------------------------0--2--2--0--2--2--2--2--
A|------------------------------------------------------------
E|------------------------------------------------------------

http://www.guitartabcreator.com
Guitar Tab Creator is intended to store guitar tab created through the tool. It currently does not support in-line text editing. Any text you place in here will be lost. If you need to comment on your tab, please use the "Tab Notes" section located below.