Sound will begin in 5 seconds

Nothin' Shakin'

Chords
01234567891011121314151617181920212223
E
B
G
D
A
E
B
0 1 2 3 4 5 6 7 8 9 10 11 12 13 14 15 16 17 18 19 20 21 22 23
Song Science #1: How Pros Use 6 Chords to Write Hit Songs
(/) Slide Up  (\) Slide Down  (h) Hammer On  (p) Pull Off  (b) Bend (r) Release (v) Vibrato

Stave 1:

E|----------5------------------------------------------------------------------------------
B|-------------------------------------7-8--8--8--8--10--10--10--10--10--8--8--8--8--8--5--
G|--7b9--------9r7--5h7p5--------------8\9--9--9--9--11--11--11--11--11--9--9--9--9--9--6--
D|-------------------------7--7--7---------------------------------------------------------
A|-----------------------------------------------------------------------------------------
E|-----------------------------------------------------------------------------------------

Stave 2:

E|--5--8b9--5-------5-----------8b9--5---------------------
B|-------------8b9----------------------5p4----------------
G|---------------------5---------------------5--7p5--------
D|------------------------7--------------------------7--7--
A|---------------------------------------------------------
E|---------------------------------------------------------

Stave 3:

E|-----------------5-----8--5--------8--10--10b12--10b12--10b12--8------
B|--------------5-----8--------8\10---------------------------------10--
G|-----6--7--8----------------------------------------------------------
D|--7-------------------------------------------------------------------
A|----------------------------------------------------------------------
E|----------------------------------------------------------------------

Stave 4:

E|--------------------------------------------------------------------------
B|--5-------5-------5-------5-------5-------5-------------------------------
G|-----7\9-----7\9-----7\9-----7\9-----7\9-----7\9--5-----------------5-----
D|-----------------------------------------------------7-----7-----7-----7--
A|--------------------------------------------------------------------------
E|--------------------------------------------------------------------------

Stave 5:

E|--------------------------------------
B|--7-9---------------------------------
G|--8\10--------5--------------5--------
D|-----------------7--7-----7-----7--7--
A|--------------------------------------
E|--------------------------------------

http://www.guitartabcreator.com
Guitar Tab Creator is intended to store guitar tab created through the tool. It currently does not support in-line text editing. Any text you place in here will be lost. If you need to comment on your tab, please use the "Tab Notes" section located below.