Sound will begin in 5 seconds

Mrs. Vandebilt Bass Tab

01234567891011121314151617181920212223
E
B
G
D
A
E
B
0 1 2 3 4 5 6 7 8 9 10 11 12 13 14 15 16 17 18 19 20 21 22 23
Song Science #1: How Pros Use 6 Chords to Write Hit Songs
(/) Slide Up  (\) Slide Down  (h) Hammer On  (p) Pull Off  (b) Bend (r) Release (v) Vibrato

Stave 1:

G|------------------------------------------------------------------------------------------------
D|------------------------------------------------------------------5-----7--7--------7--7--------
A|-----7/5--------3--5--5\7--7--------7--7--------7--7--------7--7-----7--------7-----------7--5--
E|--5-------5--5----------------7-----------7-----------7-----------------------------------------

Stave 2:

G|----------------------------------------------------------------------------------------------
D|--7--7--------7/5--------------------------------------------------5-----7--7--------7--7-----
A|--------7----------3--5--7--7--------7--7--------7--7--------7--7-----7--------7-----------7--
E|-------------------------------7-----------7-----------7--------------------------------------

Stave 3:

G|-------------------------------------------------------------------------------------
D|--7--7-----7/5--------------------------------------------------5-----------7--7-----
A|--------7-------3--5--7--7--------7--7--------7--7--------7--7-----7--0--7--------7--
E|----------------------------7-----------7-----------7--------------------------------

Stave 4:

G|----------------------------------------------------------------------------------------------------
D|--7--7-----7/5--------------------------------------------------5-----7--7--------7--7-----7--------
A|--------7-------3--5--7--7--------7--7--------7--7--------7--7-----7--------7-----------7-----0--0--
E|----------------------------7-----------7-----------7-----------------------------------------------

Stave 5:

G|-----------------------------------------------------------------------------------------------------
D|--------------------------------------------------5-----7--7--------7--7-----------------------5-----
A|--3--5--7--7--------7--7--------7--7--------7--7-----7--------7-----------7-----7--7-----7--7-----7--
E|--------------7-----------7-----------7-----------------------------------------------7--------------

Stave 6:

G|--------------------------------------------------------------------------------------------------
D|--------------7--7--------7--7--------7--7-----7--------------------------------------------------
A|--0--0--7-----------7-----------7-----------7-----0--0--3--5--7--7--------7--7--------7--7--------
E|--------------------------------------------------------------------7-----------7-----------7-----

Stave 7:

G|--------------------------------------------------------------------------
D|--------5-----7--7--------7--7--------------------------5-----7--7--------
A|--7--7-----7--------7-----------7-----7--7--------7--7-----7--------7-----
E|--------------------------------------------7-----------------------------

Stave 8:

G|---------------------------------------------------------------------------------------------
D|--7-----5--7-----7--7--7--5------------------------------------------------------------------
A|-----7--------0--------------7\8/7--5-----5--5-----5-----5--3--5--5-----5-----5--------------
E|------------------------------------------------------5--------------------5-----3--3-----3--

Stave 9:

G|-------------------------------------------------------------------------------------------------
D|--------0--3\5--5--5--5--5--5--3--2--0-----------------------------------------------------------
A|-----2----------------------------------3--3--------3--3-----0--3--3--------3-----3--5--7--7-----
E|--3-------------------------------------------3-----------3-----------3--------3--------------7--

Stave 10:

G|------------------------------------------------------------------------------------------------
D|-----------12--14--14--14--14--14--14--14--14/7----------------------------------5--7--7--------
A|--7--7\14----------------------------------------5--5--------5-----------5--5\7-----------6--7--
E|-------------------------------------------------------5-----------5----------------------------

Stave 11:

G|----------------------------------------
D|--7--7-----------------7----------------
A|--------6--7--0--6--7-----0-----2\17/7--
E|----------------------------------------

http://www.guitartabcreator.com
Guitar Tab Creator is intended to store guitar tab created through the tool. It currently does not support in-line text editing. Any text you place in here will be lost. If you need to comment on your tab, please use the "Tab Notes" section located below.