Sound will begin in 5 seconds

Matchbox BBC Solo

Chords
01234567891011121314151617181920212223
E
B
G
D
A
E
B
0 1 2 3 4 5 6 7 8 9 10 11 12 13 14 15 16 17 18 19 20 21 22 23
Song Science #1: How Pros Use 6 Chords to Write Hit Songs
(/) Slide Up  (\) Slide Down  (h) Hammer On  (p) Pull Off  (b) Bend (r) Release (v) Vibrato

Stave 1:

E|--------------------------------5-----------------------5--8--5-----------------5-----
B|--5--5--------5--7--5-----5--7--5--7--5-----5--7--5--7--5--8--5--7--5-----5--7--5-----
G|--5--5--------5--7--5--7--5--7-----7--5--7--5--7--5--7-----------7--5--7--5--7--------
D|-----------------------7-----------------7-----------------------------7--------------
A|--------------------------------------------------------------------------------------
E|--------------------------------------------------------------------------------------

Stave 2:

E|--------------------------------------5--------5-----5-----5--------------------
B|--5--------5-----5-----5-----5-----5--------8-----8-----8-----7--5-----5--------
G|--5--------5--7--5--7--5--7--5--7--6--------------------------7--5--7--5--7-----
D|-----7--------7-----7-----7-----7-----------------------------------7-----7-----
A|--------------------------------------------------------------------------------
E|--------------------------------------------------------------------------------

Stave 3:

E|-----------------------------5-----------5-----5-----------
B|--5-----5--7--5--------5-----5--7--5-----5-----5--7--5--3--
G|--5--7--5--7--5--------5--------7--5--7-----------7--5--4--
D|-----7-----------7--------------------7--------------------
A|-----------------------------------------------------------
E|-----------------------------------------------------------

Stave 4:

E|--12------12-----12--12---------12--12------12-----12--------------------------------
B|--0-------0------0---0----------0---0-------0------0---------10--10--10--10--10--10--
G|------12--------------------------------12-------------14/9--------------------------
D|------11--------------------------------11-------------------------------------------
A|-------------------------10\12-------------------------------------------------------
E|-------------------------------------------------------------------------------------

Stave 5:

E|---------------------------------------------------5-------------------------------
B|--10--7--5-----5--7--5--7--5-----5-----------5--7--5--7--5--7--6-8--8--8--7--5-----
G|--9---7--5--7--5--7--5--7--5--7--5-----------5--7-----7--5--7--7\9--9--9--7--5--7--
D|------------7-----------------7--------5--7-------------------------------------7--
A|------------------------------------7----------------------------------------------
E|-----------------------------------------------------------------------------------

Stave 6:

E|-----------------------------------
B|--5--5-----5--5-----5--5--5--5-----
G|--5--5-----5--5-----5--5--5--5-----
D|--------7--------7--------------7--
A|-----------------------------------
E|-----------------------------------

http://www.guitartabcreator.com
Guitar Tab Creator is intended to store guitar tab created through the tool. It currently does not support in-line text editing. Any text you place in here will be lost. If you need to comment on your tab, please use the "Tab Notes" section located below.