Sound will begin in 5 seconds

Long Tall Sally

Chords
01234567891011121314151617181920212223
E
B
G
D
A
E
B
0 1 2 3 4 5 6 7 8 9 10 11 12 13 14 15 16 17 18 19 20 21 22 23
Song Science #1: How Pros Use 6 Chords to Write Hit Songs
(/) Slide Up  (\) Slide Down  (h) Hammer On  (p) Pull Off  (b) Bend (r) Release (v) Vibrato

Stave 1:

E|--7--7--7--7--7--7--3-7--7--7--7--7--7--7--5-7--7--7--7--7--7--7--
B|--6--6--6--6--6--6--2-6--6--6--6--6--6--6--4-6--6--6--6--6--6--6--
G|--7--7--7--7--7--7--3\7--7--7--7--7--7--7--5\7--7--7--7--7--7--7--
D|------------------------------------------------------------------
A|------------------------------------------------------------------
E|------------------------------------------------------------------

Stave 2:

E|--5-7--7--7--5-7--7--7--5-7--7--7--5-7--7--7--7--7--7--7--7--------------------------------3--6--3--
B|--4-6--6--6--4-6--6--6--4-6--6--6--4-6--6--6--6--6--6--6--6--3-----------3-----------3--5-----------
G|--5\7--7--7--5\7--7--7--5\7--7--7--5\7--7--7--7--7--7--7--7-----5--3-----3-----3--5-----------------
D|----------------------------------------------------------------------5-----5-----------------------
A|----------------------------------------------------------------------------------------------------
E|----------------------------------------------------------------------------------------------------

Stave 3:

E|--3--6/5p3-------------------------------------------------------------------------------------
B|------------6/5p3--5--3-----3--5-6-----5-6-6-5--3--------3-----3-----3--3-----3-6-----6--5--3--
G|-------------------5--3--5--3--5b7-----5b7b7r5--3-----5--3--5--3--5--3--3-----3\6-----6--5--3--
D|-------------------------5----------------------------5-----5-----5----------------------------
A|-----------------------------------------------------------------------------------------------
E|-----------------------------------------------------------------------------------------------

Stave 4:

E|------------------------------------3--
B|--5-6-----6-5--3-----3-----3--3-----3--
G|--5b7-----7r5--3--5--3-----5--5-----4--
D|------------------5--------4--4-----5--
A|------------------------------------5--
E|------------------------------------3--

Stave 5:

E|------------------------------------------------
B|--11--13--13b15--13b15--13b15--13b15--13b15-----
G|------------------------------------------------
D|------------------------------------------------
A|------------------------------------------------
E|------------------------------------------------

Stave 6:

E|--15--15--------------15--15--15--------------15--15--15------16------17------18------19------20------
B|----------12--12--12--------------12--12--12--------------12------13------14------15------16------17--
G|------------------------------------------------------------------------------------------------------
D|------------------------------------------------------------------------------------------------------
A|------------------------------------------------------------------------------------------------------
E|------------------------------------------------------------------------------------------------------

Stave 7:

E|----------------------------------------------3--6b7r6--6/5p3-------------------------------
B|------------5-6--6-5-----------------------3-------------------6/5p3---------3--5--3-----3--
G|--5b6r5-----5b6--6r5--3-----------3--5--3-----------------------------5b7r5--3--5--3--5--3--
D|-------------------------5--5--5------------------------------------------------------5-----
A|--------------------------------------------------------------------------------------------
E|--------------------------------------------------------------------------------------------

Stave 8:

E|---------------------------------------------------------------
B|--5-6-6-5------------------------------------------------------
G|--5b6b6r5--3---------------------------------------------------
D|--------------5-------0----------0-------0-------0-------------
A|-----------------3\5-----5--3\5-----3\5-----3\5-----3\5--3\10--
E|---------------------------------------------------------------

Stave 9:

E|-----------------------10--
B|-----------------------10--
G|-----------------------10--
D|-----------------------9---
A|--1--2--3--4--3--2-----10--
E|--------------------3------

http://www.guitartabcreator.com
Guitar Tab Creator is intended to store guitar tab created through the tool. It currently does not support in-line text editing. Any text you place in here will be lost. If you need to comment on your tab, please use the "Tab Notes" section located below.