Sound will begin in 5 seconds

Lonesome Tears In My Eyes

Chords
01234567891011121314151617181920212223
E
B
G
D
A
E
B
0 1 2 3 4 5 6 7 8 9 10 11 12 13 14 15 16 17 18 19 20 21 22 23
Song Science #1: How Pros Use 6 Chords to Write Hit Songs
(/) Slide Up  (\) Slide Down  (h) Hammer On  (p) Pull Off  (b) Bend (r) Release (v) Vibrato

Stave 1:

E|--7-----7--9---9---10--10--10-11--11--11--11--11--11--11-9---9---9---9---7--5--4--4--4--4--4-----4--
B|--9-----9--10--10--11--11--11\12--12--12--12--12--12--12/10--10--10--10--9--7--5--5--5--5--5-----5--
G|----------------------------------------------------------------------------------------6-----6--4--
D|----------------------------------------------------------------------------------------------------
A|----------------------------------------------------------------------------------------------------
E|----------------------------------------------------------------------------------------------------

Stave 2:

E|------------------------------------------------------------------------------------------
B|------------------------------------------------------------------------------------------
G|------------------------------------------------------------------------------------------
D|----------4----------4--------------------------------4----------4------------------------
A|--2--4\6-----2--4\6-------------2----------2--2--4\6-----2--4\6-------------2----------2--
E|------------------------0--2\4-----0--2\4---------------------------0--2\4-----0--2\4-----

Stave 3:

E|--------------------------------------------------------------------0--0--0--0--0--
B|--------------------------------------------------------------------0--2--0--2--0--
G|--------------------------------------------------------------------1--1--1--1--1--
D|----------2----------2--------------------------------4----------4--2--2--2--2--2--
A|--0--2\4-----0--2\4-------------2----------2--2--4\6-----2--4\6--------------------
E|------------------------0--2\4-----0--2\4------------------------------------------

Stave 4:

E|--7-----7--9---9---10--10--10-11--11--11--11--11--11--11-9---9---9---9---7--5--4--4--4-----4-----
B|--9-----9--10--10--11--11--11\12--12--12--12--12--12--12/10--10--10--10--9--7--5--5--5-----5-----
G|----------------------------------------------------------------------------------------6-----6--
D|-------------------------------------------------------------------------------------------------
A|-------------------------------------------------------------------------------------------------
E|-------------------------------------------------------------------------------------------------

Stave 5:

E|--4--4--4--5--4--------12--12--12------------12----------12--------------12------12-
B|--5--5--5--5--5--------12--12--12----------------12----------12------------------12-
G|-----------------4\12------13--14--------14----------14----------14--13------13--13/
D|------------------------------------------------------------------------------------
A|------------------------------------------------------------------------------------
E|------------------------------------------------------------------------------------

Stave 6:

E|--4--4--5--5--7--7--7-12-----12--12--12--12--12--12--11--11--11--9---9---9---7--7--7-----7--7--7--7--
B|--5--5--7--7--9--9--9\14-----14--14--14--14--14--14--12--12--12--10--10--10--9--9--9-----9--9--9--9--
G|-----------------------------------------------------------------------------------------------------
D|-----------------------------------------------------------------------------------------------------
A|-----------------------------------------------------------------------------------------------------
E|-----------------------------------------------------------------------------------------------------

Stave 7:

E|---------------------------------11--11--11--11--11--11--9---9---9---7--5--4--4--4-----4-----4--
B|-------------------9--10--10\12--12--12--12--12--12--12--10--10--10--9--7--5--5--5-----5-----5--
G|---------8--9--11-------------------------------------------------------------------6-----6--4--
D|--9--11-----------------------------------------------------------------------------------------
A|------------------------------------------------------------------------------------------------
E|------------------------------------------------------------------------------------------------

Stave 8:

E|--7--7--9---9---10--10--10-11--11--11--11--11--11--11-9---9---9---9---7--5--4--4--4-----4-----
B|--9--9--10--10--11--11--11\12--12--12--12--12--12--12/10--10--10--10--9--7--5--5--5-----5-----
G|-------------------------------------------------------------------------------------6-----6--
D|----------------------------------------------------------------------------------------------
A|----------------------------------------------------------------------------------------------
E|----------------------------------------------------------------------------------------------

Stave 9:

E|--4--4--4--5--4--------12--12--12------------12----------12--------------12------12-
B|--5--5--5--5--5--------12--12--12----------------12----------12------------------12-
G|-----------------4\12------13--14--------14----------14----------14--13------13--13/
D|------------------------------------------------------------------------------------
A|------------------------------------------------------------------------------------
E|------------------------------------------------------------------------------------

Stave 10:

E|--4--4--5--5--7--7-12-----12--12--12--12--12--12--11--11--11--9---9---9---7--7--7--7--7--7--7--
B|--5--5--7--7--9--9\14-----14--14--14--14--14--14--12--12--12--10--10--10--9--9--9--9--9--9--9--
G|-----------------------------------------------------------------------------------------------
D|-----------------------------------------------------------------------------------------------
A|-----------------------------------------------------------------------------------------------
E|-----------------------------------------------------------------------------------------------

Stave 11:

E|---------------------------------11--11--11--11--11--11--9---9---9---7--5--4--4--4-----4-----4--
B|-------------------9--10--10\12--12--12--12--12--12--12--10--10--10--9--7--5--5--5-----5-----5--
G|---------8--9--11-------------------------------------------------------------------6-----6--4--
D|--9--11-----------------------------------------------------------------------------------------
A|------------------------------------------------------------------------------------------------
E|------------------------------------------------------------------------------------------------

Stave 12:

E|--7--7--9---9---10--10--10-11--11--11--11--11--11--11-9---9---9---9---7--5--4--4--4-----4-----4--
B|--9--9--10--10--11--11--11\12--12--12--12--12--12--12/10--10--10--10--9--7--5--5--5-----5-----5--
G|-------------------------------------------------------------------------------------6-----6--4--
D|-------------------------------------------------------------------------------------------------
A|-------------------------------------------------------------------------------------------------
E|-------------------------------------------------------------------------------------------------

Stave 13:

E|--0--0--0--
B|--0--0--0--
G|--1--1--1--
D|--2--2--2--
A|--2--2--2--
E|--0--0--0--

http://www.guitartabcreator.com
Guitar Tab Creator is intended to store guitar tab created through the tool. It currently does not support in-line text editing. Any text you place in here will be lost. If you need to comment on your tab, please use the "Tab Notes" section located below.