Sound will begin in 5 seconds

Kansas City / Hey-Hey-Hey-Hey! (Shindig)

Chords
01234567891011121314151617181920212223
E
B
G
D
A
E
B
0 1 2 3 4 5 6 7 8 9 10 11 12 13 14 15 16 17 18 19 20 21 22 23
Song Science #1: How Pros Use 6 Chords to Write Hit Songs
(/) Slide Up  (\) Slide Down  (h) Hammer On  (p) Pull Off  (b) Bend (r) Release (v) Vibrato

Stave 1:

E|---------------------------------------------------------------------------
B|---------------------------------------------5-6--6-5-------------------6--
G|--5b7r5--3-----3--------3--5b7b7r5--3--------5b6--6r5--5--3--------3\7-----
D|------------5-----5--------------------5---------------------5-------------
A|---------------------------------------------------------------------------
E|---------------------------------------------------------------------------

Stave 2:

E|-----6--8--8b10b10r8--6-----6--8b10r8-----6-------3-------3----------3-------3----------
B|--8----------------------8-------------------8/6--3-------------------------------------
G|-----------------------------------------------------5b7-----7r5--3-----5b7-----7r5--3--
D|----------------------------------------------------------------------------------------
A|----------------------------------------------------------------------------------------
E|----------------------------------------------------------------------------------------

Stave 3:

E|--------------------------------------------------------------------------
B|--------------------------------------------------------3-----------------
G|-----------------------------------------------------5-----5--5--3--------
D|--3--5p3-----3-----3-----3--5-----5b6--6r5--3-----5-----------------3--5--
A|----------5-----------5---------------------------------------------------
E|--------------------------------------------------------------------------

http://www.guitartabcreator.com
Guitar Tab Creator is intended to store guitar tab created through the tool. It currently does not support in-line text editing. Any text you place in here will be lost. If you need to comment on your tab, please use the "Tab Notes" section located below.