Sound will begin in 5 seconds

Junior's Farm

01234567891011121314151617181920212223
E
B
G
D
A
E
B
0 1 2 3 4 5 6 7 8 9 10 11 12 13 14 15 16 17 18 19 20 21 22 23
Song Science #1: How Pros Use 6 Chords to Write Hit Songs
(/) Slide Up  (\) Slide Down  (h) Hammer On  (p) Pull Off  (b) Bend (r) Release (v) Vibrato

Stave 1:

E|---------------------------------
B|-------------------6--8----------
G|--7h9p7------7--9--------7b9--7--
D|---------10----------------------
A|---------------------------------
E|---------------------------------

Stave 2:

E|-----------------------------------13--13--15--17--15--
B|---------------------------13--11----------------------
G|--7h9p7------7--9--10--12------------------------------
D|---------10--------------------------------------------
A|-------------------------------------------------------
E|-------------------------------------------------------

Stave 3:

E|-------------------------------
B|-------------------------------
G|-----------0--2p0-----0--------
D|-----0--2----------2-----2--0--
A|--2----------------------------
E|-------------------------------

Stave 4:

E|----------0----------------------
B|-------3-----3-------------------
G|--2\4-----------4/2-----0-----0--
D|---------------------2-----2-----
A|---------------------------------
E|---------------------------------

Stave 5:

E|----------------------------------------------------------------------------------------------------
B|----------------------------------------------15----------------------------------------------------
G|---------12--12------14--12--14b16-----14b16------16r14--12--------------12--12---------------------
D|--12h14----------14------------------------------------------14--12--14----------14--14b16--12------
A|------------------------------------------------------------------------------------------------14--
E|----------------------------------------------------------------------------------------------------

Stave 6:

E|--------------------------15---------15---------15---------15---------15---------15---------15---------
B|-------------------15h17------15h17------15h17------15h17------15h17------15h17------15h17------15h17--
G|-------------------------------------------------------------------------------------------------------
D|--12---------------------------------------------------------------------------------------------------
A|------14/12--10/---------------------------------------------------------------------------------------
E|-------------------------------------------------------------------------------------------------------

Stave 7:

E|--15--17b19-----17b19--15---------------------------------------------
B|---------------------------17p15--------------------------------------
G|----------------------------------16/14p12------14b16r14--12------12--
D|--------------------------------------------14----------------14------
A|----------------------------------------------------------------------
E|----------------------------------------------------------------------

Stave 8:

E|--
B|--
G|--
D|--
A|--
E|--

http://www.guitartabcreator.com
Guitar Tab Creator is intended to store guitar tab created through the tool. It currently does not support in-line text editing. Any text you place in here will be lost. If you need to comment on your tab, please use the "Tab Notes" section located below.