Sound will begin in 5 seconds

I'm Henry The VIII I Am Intro and Solo

Chords
01234567891011121314151617181920212223
E
B
G
D
A
E
B
0 1 2 3 4 5 6 7 8 9 10 11 12 13 14 15 16 17 18 19 20 21 22 23
Song Science #1: How Pros Use 6 Chords to Write Hit Songs
(/) Slide Up  (\) Slide Down  (h) Hammer On  (p) Pull Off  (b) Bend (r) Release (v) Vibrato

Stave 1:

E|-------4-------------------4-----------
B|--4\5-----------------4\5--------------
G|----------7--5----------------7--5-----
D|----------------7--5----------------7--
A|---------------------------------------
E|---------------------------------------

Stave 2:

E|--5--5--5--5----------5----------5---------------------5--5------------------------5-----5------------
B|--5--5--5--5--7--5----5--7--5----5--7--5--7-8-7--5--7--5--5--7--5----------7--5----5--7--5--7--8p7p5--
G|--------------7--5h6-----7--5h6-----7--5--7b8r7--5--7--------7--5h6--------7--5h6-----7-----7---------
D|------------------------------------------------------------------------------------------------------
A|------------------------------------------------------------------------------------------------------
E|------------------------------------------------------------------------------------------------------

Stave 3:

E|--------------9--7-9--9--7-----5------------------9-7----------7-5--7-9--7--
B|--7--9--7--9--9--7h9--9--7-----5--7--5----7-9--9--9p7-----5-7--7p5--7\9--7--
G|--8--9--8-------------------------7--5h6--7\9--9----------5h7---------------
D|----------------------------------------------------------------------------
A|----------------------------------------------------------------------------
E|----------------------------------------------------------------------------

Stave 4:

E|------7--7h9------7-----5--7-----9---9---9---9---7--7--5--
B|--10----------10-----9--5--7-----10--10--10--10--9--9--5--
G|----------------------------------------------------------
D|----------------------------------------------------------
A|----------------------------------------------------------
E|----------------------------------------------------------

http://www.guitartabcreator.com
Guitar Tab Creator is intended to store guitar tab created through the tool. It currently does not support in-line text editing. Any text you place in here will be lost. If you need to comment on your tab, please use the "Tab Notes" section located below.