Sound will begin in 5 seconds

I'm Gonna Sit Right Down and Cry Over You Riff, Solo, and Ending

Chords
01234567891011121314151617181920212223
E
B
G
D
A
E
B
0 1 2 3 4 5 6 7 8 9 10 11 12 13 14 15 16 17 18 19 20 21 22 23
Song Science #1: How Pros Use 6 Chords to Write Hit Songs
(/) Slide Up  (\) Slide Down  (h) Hammer On  (p) Pull Off  (b) Bend (r) Release (v) Vibrato

Stave 1:

E|-------------------
B|-------------------
G|-------------------
D|--3h5--3-----------
A|----------5--3--5--
E|-------------------

Stave 2:

E|--------------------------------------------------3--6--6p3------------------------
B|--3--3--3--3-----------3--------------------3--5-------------6p3-------------------
G|--------------5--3-----3--------3-----3--5------------------------5p3--------3-----
D|--------------------5-----5--5-----5--------------------------------------5-----5--
A|-----------------------------------------------------------------------------------
E|-----------------------------------------------------------------------------------

Stave 3:

E|-------------------------------------------------------3--------------------
B|--5-6-5--5-6-5--5-6-5--5-6-----------------------3--5-----5-----------------
G|--5b7r5--5b7r5--5b7r5--5b7--3--------3-----3--5--------------5b7b7r7--3-----
D|-------------------------------5--5-----5--------------------------------5--
A|----------------------------------------------------------------------------
E|----------------------------------------------------------------------------

Stave 4:

E|---------------------------------
B|---------------------------------
G|-----------------------6/5p3-----
D|--5---------------------------5--
A|-----0---------------------------
E|---------------------------------

Stave 5:

E|-----------------------------------------12--
B|-----------------------------------------12--
G|-----------------------------------------12--
D|--3h5------------------------------------12--
A|-------5--3--3h5--3----------------------10--
E|---------------------6--5--5h6--3--2--3------

http://www.guitartabcreator.com
Guitar Tab Creator is intended to store guitar tab created through the tool. It currently does not support in-line text editing. Any text you place in here will be lost. If you need to comment on your tab, please use the "Tab Notes" section located below.