Sound will begin in 5 seconds

I Saw Her Standing There BBC Solo

Chords
01234567891011121314151617181920212223
E
B
G
D
A
E
B
0 1 2 3 4 5 6 7 8 9 10 11 12 13 14 15 16 17 18 19 20 21 22 23
Song Science #1: How Pros Use 6 Chords to Write Hit Songs
(/) Slide Up  (\) Slide Down  (h) Hammer On  (p) Pull Off  (b) Bend (r) Release (v) Vibrato

Stave 1:

E|--3-4--4--4----3-4--4-------------------------------------------------------------------------------
B|--2-3--3--3----2-3--3-----------------------------------3-------3-------3-------3-------------------
G|--3\4--4--4----3\4--4--4/2--0-----------0--2----2--2\4-----2\4-----2\4-----2\4-----4/2--0-----------
D|-------------------------------2--2--2-----------------------------------------------------2--2--2--
A|----------------------------------------------------------------------------------------------------
E|----------------------------------------------------------------------------------------------------

Stave 2:

E|------------------------------------------------------------------------------
B|------------------------------------------------------------------------------
G|------------------------------------------------------------------------------
D|--2p0--------------0--2----2--2\4--2\4--2p0--------------0--------------0-----
A|-------2--------2----------------------------2--0--2--2-----2--0--2--2-----2--
E|----------4--0----------------------------------------------------------------

Stave 3:

E|---------------------------------------------------------------------3--
B|-----------------------------------------------------------3----3\5-----
G|--------------------------0h2--2b3r2--2p0-----0----0--2\4---------------
D|-----2--2--0h2--0h2--0h2-------------------2----------------------------
A|--0---------------------------------------------------------------------
E|------------------------------------------------------------------------

Stave 4:

E|---------3--5--5b6r5--5b6r5--5p3-----3-----5b6r5--5b6r5--5p3-----3------------
B|----3\5---------------------------5-----5---------------------5-----5--5------
G|------------------------------------------------------------------------------
D|------------------------------------------------------------------------------
A|------------------------------------------------------------------------------
E|------------------------------------------------------------------------------

Stave 5:

E|----------------------------------
B|-------3--------------------------
G|--2\4-----4/2--0-----2\4/2--0--2--
D|------------------2---------------
A|----------------------------------
E|----------------------------------

http://www.guitartabcreator.com
Guitar Tab Creator is intended to store guitar tab created through the tool. It currently does not support in-line text editing. Any text you place in here will be lost. If you need to comment on your tab, please use the "Tab Notes" section located below.