Sound will begin in 5 seconds

I Got To Find My Baby Intro, Verse, Licks, Ending

Chords
01234567891011121314151617181920212223
E
B
G
D
A
E
B
0 1 2 3 4 5 6 7 8 9 10 11 12 13 14 15 16 17 18 19 20 21 22 23
Song Science #1: How Pros Use 6 Chords to Write Hit Songs
(/) Slide Up  (\) Slide Down  (h) Hammer On  (p) Pull Off  (b) Bend (r) Release (v) Vibrato

Stave 1:

E|-----------------------------------2-----2--3--
B|-----------------------------------3-----3--3--
G|-----------------------------------2-----2--0--
D|--------0--2--0--0--0--0--0--0--0--0-----0--0--
A|--0--2--------2--2--2--2--2--2--2-----------2--
E|--------------3--3--3--3--3--3--3-----------3--

Stave 2:

E|--------------------------------------------------------------------------------
B|--------------------------------------------------------------------------------
G|-----5--3--------------------5--3--------------------------------------------0--
D|--5--------5--------------5--------5-----------------------0--0--0--0--0--0--2--
A|-----------------------------------------------------------2--2--2--2--2--2--3--
E|-----------------------------------------------------------3--3--3--3--3--3-----

Stave 3:

E|-----------------------------------------------------------------------------------------------------
B|--5-6------------------------------------------------------------------------------------------------
G|--6\7--5--3-----3--5--5b7--7--7r5--5--3--------------------------------------------------------------
D|-------------5---------------------------5-----------------------------------------------------------
A|--------------------------------------------------------------------------2--2--2--3--3--3--4--4--4--
E|--------------------------------------------------------------------3--3-----------------------------

Stave 4:

E|-------------------------------------------------------------------------------------------
B|--4----------------------------------------------------------------------------------------
G|--5--3-----------5b7--5--3-----------------------------------------------------------------
D|--------5-------------------5--------------------------------------------------------------
A|-------------------------------------------------------------2--2--2--3--3--3--4--4--4--5--
E|-------------------------------------------------------3--3--------------------------------

Stave 5:

E|----------------------------------------------------------------------------
B|--4-6--6--4--3--------2--3--2--1--------------------------------------------
G|--5\7--7--5--3--------------------3-----------------------------------------
D|----------------5--------------------5--------------------------------------
A|----------------------------------------------------------------2--3--4--5--
E|-------------------------------------------------------------3--------------

Stave 6:

E|--------------------------------
B|--------------------------------
G|--------------------------------
D|--5--5-7--7--7-9--9--9-8--8--8--
A|--5--5-7--7--7-9--9--9-8--8--8--
E|--3--3\5--5--5\7--7--7/6--6--6--

Stave 7:

E|--------------------------------------1--2--3--3--4--5--8---9---10--10--
B|--------------------------------------1--2--3--5--6--7--10--11--12--10--
G|--------------------------------------2--3--4--5--6--7--10--11--12--10--
D|--------------------------------------3--4--5--5--6--7--10--11--12--9---
A|--------2--2--2--3--3--3--4--4--4--5--3--4--5--3--4--5--8---9---10--10--
E|--3--3--------------------------------1--2--3---------------------------

http://www.guitartabcreator.com
Guitar Tab Creator is intended to store guitar tab created through the tool. It currently does not support in-line text editing. Any text you place in here will be lost. If you need to comment on your tab, please use the "Tab Notes" section located below.