Sound will begin in 5 seconds

I Forgot To Remember To Forget

Chords
01234567891011121314151617181920212223
E
B
G
D
A
E
B
0 1 2 3 4 5 6 7 8 9 10 11 12 13 14 15 16 17 18 19 20 21 22 23
Song Science #1: How Pros Use 6 Chords to Write Hit Songs
(/) Slide Up  (\) Slide Down  (h) Hammer On  (p) Pull Off  (b) Bend (r) Release (v) Vibrato

Stave 1:

E|--------------4--4--2-----9--9--7--0--------------
B|--------------2--2--2-----7--7--7--0--------------
G|--------------------------------------4--3--2--1--
D|--------------------------------------6--5--4--2--
A|--------------------------------------------------
E|--0--1-----2--------------------------------------

Stave 2:

E|--------------
B|--------------
G|--4--3--2--1--
D|--6--5--4--2--
A|--------------
E|--------------

Stave 3:

E|--7--6--5--4-----4--5--5-7--9---7--6--5-----5-----5-----------
B|--9--8--7--5-----5--7--7\9--10--9--8--7-----7--------7--------
G|--------------------------------------------------------------
D|--------------------------------------------------------------
A|--------------------------------------------------------------
E|--------------------------------------------------------------

Stave 4:

E|--11-----11--10--9------11--10--9---7-----7--6--5--4--5-7--6--5--4-----4--5--6--7-9---7--7--9---
B|--12-----12--11--10-----12--11--10--9-----9--8--7--5--7\9--8--7--5-----5--7--8--9\10--9--9--10--
G|------------------------------------------------------------------------------------------------
D|------------------------------------------------------------------------------------------------
A|------------------------------------------------------------------------------------------------
E|------------------------------------------------------------------------------------------------

Stave 5:

E|--9------9--12-----12--11--9---7-----7--6--5-----5--4--------------
B|-----10-----14-----14--12--10--9--9--9--8--7-----7--5--------------
G|-------------------------------------------------------4--3--2--1--
D|-------------------------------------------------------6--5--4--2--
A|-------------------------------------------------------------------
E|-------------------------------------------------------------------

Stave 6:

E|--7--6--6--5--5--4--
B|--9--8--8--7--7--5--
G|--------------------
D|--------------------
A|--------------------
E|--------------------

http://www.guitartabcreator.com
Guitar Tab Creator is intended to store guitar tab created through the tool. It currently does not support in-line text editing. Any text you place in here will be lost. If you need to comment on your tab, please use the "Tab Notes" section located below.