Sound will begin in 5 seconds

The Honeymoon Song

Chords
01234567891011121314151617181920212223
E
B
G
D
A
E
B
0 1 2 3 4 5 6 7 8 9 10 11 12 13 14 15 16 17 18 19 20 21 22 23
Song Science #1: How Pros Use 6 Chords to Write Hit Songs
(/) Slide Up  (\) Slide Down  (h) Hammer On  (p) Pull Off  (b) Bend (r) Release (v) Vibrato

Stave 1:

E|--4--5--7--9---9---9---9---9---9---9---7--5--0----0--0----------------0--
B|--5--7--9--10--10--10--10--10--10--10--9--7--2----2--2----------------2--
G|---------------------------------------------1----1--1----------------1--
D|---------------------------------------------2----2--2----------------2--
A|---------------------------------------------2----2--2--5h6--4--------2--
E|---------------------------------------------0----0--0----------7--5--0--

Stave 2:

E|----0--0----2----2--2----0----11----------------------0--0--0--0--0--0--0--2--
B|----2--2----2----2--2----2--------12------12----------2--0--2--2--0--2--2--0--
G|----1--1----2----2--2----1------------13--------------1--1--1--1--1--1--1--2--
D|----2--2----2----2--2----2----------------------------2--2--2--2--2--2--2--1--
A|----2--2-----------------2----------------------------2--2--2--2--2--2--2--2--
E|----0--0-----------------0----------------------------0--0--0--0--0--0--0--0--

Stave 3:

E|--7--------7----7--6--5--4--0----0--0--0--2--2--2--0----0--0--0--2----2--
B|-----9-----9----9--8--7--5--2----2--2--2--2--2--2--2----2--2--2--2----2--
G|--------8--8----8--7--6--4--1----1--1--1--2--2--2--1----1--1--1--2----2--
D|----------------------------2----2--2--2--2--2--2--2----2--2--2--2----2--
A|----------------------------2----2--2--2--0--0--0--2----2--2--2--0----0--
E|----------------------------0----0--0--0-----------0----0--0--0----------

Stave 4:

E|--0-------------------------------------------
B|--0----2---------2--------------------0----0--
G|--1----2----1----2----1----1--1--1----1----1--
D|--2----2----2----2----2----2--2--2----2----2--
A|--2----0----2----0----2----2--2--2----2----2--
E|--0---------0---------0-----------------------

Stave 5:

E|--4\12--11--------------------8\12--11-------------------------7--6--5--4--
B|------------14--------12----------------14--------12h14--12----9--8--7--5--
G|---------------------------------------------------------------8--7--6--4--
D|---------------------------------------------------------------------------
A|---------------------------------------------------------------------------
E|---------------------------------------------------------------------------

Stave 6:

E|--0----0--0--0----2----2----0----0--0--0----7--------5--------4--------2--------
B|--2----2--2--2----2----2----2----2--2--2-------9--------7--------5--------2-----
G|--1----1--1--1----2----2----1----1--1--1----------8--------6--------6--------2--
D|--2----2--2--2----2----2----2----2--2--2----------------------------------------
A|--2----2--2--2----0----0----2----2--2--2----------------------------------------
E|--0----0--0--0--------------0----0--0--0----------------------------------------

Stave 7:

E|--4----4--4----2--2--4----4--5--7--9---9---9---9---9---9---9---7--5--4--0----0--0--0--
B|--4----4--4----5--5--4----5--7--9--10--10--10--10--10--10--10--9--7--5--2----2--2--2--
G|--5----5--5----2--2--4--------------------------------------------------1----1--1--1--
D|--6----6--6----2--2--4--------------------------------------------------2----2--2--2--
A|--6----6--6----4--4-----------------------------------------------------2----2--2--2--
E|--4----4--4----2--2-----------------------------------------------------0----0--0--0--

Stave 8:

E|--4--5--7--9---9---9---9---9---9---9---9---7--9---11----11----11----7--6--5--4--
B|--5--7--9--10--10--10--10--10--10--10--10--9--10--12----12----12----9--8--7--5--
G|--------------------------------------------------------------------8--7--6--4--
D|--------------------------------------------------------------------------------
A|--------------------------------------------------------------------------------
E|--------------------------------------------------------------------------------

Stave 9:

E|--0--0--0--2----2----0----0--0--0--2----2----7--------5--------4--------2--------
B|--2--2--2--2----2----2----2--2--2--2----2-------9--------7--------5--------2-----
G|--1--1--1--2----2----1----1--1--1--2----2----------8--------6--------6--------2--
D|--2--2--2--2----2----2----2--2--2--2----2----------------------------------------
A|--2--2--2--0----0----2----2--2--2--0----0----------------------------------------
E|--0--0--0------------0----0--0--0------------------------------------------------

Stave 10:

E|--4----4--4--4----2----2----0---------------2----2\4--0-------------2--4--
B|--4----4--4--4----5----0----2----2----2--2--2----2-4--2--2----2--2--2--4--
G|--5----5--5--5----2----2----1---------------2----2-4--1-------------2--4--
D|--6----6--6--6----2----1----2---------------2----2-4--2-------------2--4--
A|--6----6--6--6----4----2----2---------------0----0-0--2-------------0--0--
E|--4----4--4--4----2----0----0-------------------------0-------------------

Stave 11:

E|--4--5--7--9---9---9---9---9---9---11--11--12---------------------0--0--0--
B|--5--7--9--10--10--10--10--10--10--10--10--9----------------------0--0--0--
G|------------------------------------------------------------------1--1--1--
D|------------------------------------------------------------------2--2--2--
A|-------------------------------------------------5h6--4-----------2--2--2--
E|---------------------------------------------------------7--5--0-----------

Stave 12:

E|--
B|--
G|--
D|--
A|--
E|--

Stave 13:

E|--
B|--
G|--
D|--
A|--
E|--

Stave 14:

E|--
B|--
G|--
D|--
A|--
E|--

Stave 15:

E|--
B|--
G|--
D|--
A|--
E|--

Stave 16:

E|--
B|--
G|--
D|--
A|--
E|--

Stave 17:

E|--
B|--
G|--
D|--
A|--
E|--

Stave 18:

E|--
B|--
G|--
D|--
A|--
E|--

Stave 19:

E|--
B|--
G|--
D|--
A|--
E|--

Stave 20:

E|--0--0--
B|--2--2--
G|--1--1--
D|--2--2--
A|--2--2--
E|--0--0--

http://www.guitartabcreator.com
Guitar Tab Creator is intended to store guitar tab created through the tool. It currently does not support in-line text editing. Any text you place in here will be lost. If you need to comment on your tab, please use the "Tab Notes" section located below.