Sound will begin in 5 seconds

The Hippy Hippy Shake Solo

Chords
01234567891011121314151617181920212223
E
B
G
D
A
E
B
0 1 2 3 4 5 6 7 8 9 10 11 12 13 14 15 16 17 18 19 20 21 22 23
Song Science #1: How Pros Use 6 Chords to Write Hit Songs
(/) Slide Up  (\) Slide Down  (h) Hammer On  (p) Pull Off  (b) Bend (r) Release (v) Vibrato

Stave 1:

E|---------------------12--12-16--16--16---------16--16---------16---------16--
B|--11\12--12--12--14------13\17--17--17--15\17--17--17--15\17--17--15\17--17--
G|-----------------------------------------------------------------------------
D|-----------------------------------------------------------------------------
A|-----------------------------------------------------------------------------
E|-----------------------------------------------------------------------------

Stave 2:

E|----16----------------16--16--16----16-14--14-12--12-10--10-9---9--7--7-5--5-3--3-5--5-3--3-2--2-3--3--
B|----17--15\17--15\17--17--17--17----17/15--15/14--14/12--12/10--10/9--9/7--7/5--5\7--7/5--5/3--3\5--5--
G|-------------------------------------------------------------------------------------------------------
D|-------------------------------------------------------------------------------------------------------
A|-------------------------------------------------------------------------------------------------------
E|-------------------------------------------------------------------------------------------------------

Stave 3:

E|----15--15----15-16-15--15-16-15--15-16-15----15b16--15-16-15--15-16-15--
B|----14--14----14b15r14--14b15r14--14b15r14-----------14b15r14--14b15r14--
G|-------------------------------------------------------------------------
D|-------------------------------------------------------------------------
A|-------------------------------------------------------------------------
E|-------------------------------------------------------------------------

Stave 4:

E|----------------------------------------------------------------------------12--15------15--15--15--
B|----14-15-14--14-15-14----12----------------------------------------12--15--------------15--15--15--
G|----14b15r14--14b15r14--------15--14--12--------------------12--14----------------------------------
D|------------------------------------------14--12--14----14------------------------------------------
A|----------------------------------------------------------------------------------------------------
E|----------------------------------------------------------------------------------------------------

http://www.guitartabcreator.com
Guitar Tab Creator is intended to store guitar tab created through the tool. It currently does not support in-line text editing. Any text you place in here will be lost. If you need to comment on your tab, please use the "Tab Notes" section located below.