Sound will begin in 5 seconds

Everybody's Trying To Be My Baby

Chords
01234567891011121314151617181920212223
E
B
G
D
A
E
B
0 1 2 3 4 5 6 7 8 9 10 11 12 13 14 15 16 17 18 19 20 21 22 23
Song Science #1: How Pros Use 6 Chords to Write Hit Songs
(/) Slide Up  (\) Slide Down  (h) Hammer On  (p) Pull Off  (b) Bend (r) Release (v) Vibrato

Stave 1:

E|--------0----0--------0----0-----------------------------
B|--------0h2--0--------0h2--0-----------------------------
G|--------1----1--------1----1-----------------------------
D|--------2----2--------2----2-----------------------------
A|--------2----2--------2----2--------2--------------------
E|--------0----0--------0----0-----------0--2--3--3--3--4--

Stave 2:

E|--------------------------------------------------------------------------
B|--------------------------------------------------------------------------
G|--------------------------------------------------------------------------
D|-----4--2-----2--4--2-----4--2-----2--4--2--------------------------------
A|--0--------0-----------0--------0--------------4--2-----2--4--2-----4--2--
E|--------------------------------------------0--------0-----------0--------

Stave 3:

E|-----------2-----2--2--2-----2--2-----0----------0--------
B|-----------0-----0--0--2-----2--2--------3----------3--2--
G|-----------2-----2--2--2-----2--2-----------0h1--------1--
D|-----------1-----------2----------------------------------
A|--0--1--2--2-----------0----------------------------------
E|----------------------------------------------------------

Stave 4:

E|-----7-----7-----7-----7-----7-----7-----7-----7---------12------12------12------12--
B|-----0-----0-----0-----0-----0-----0-----0-----0---------0-------0-------0-------0---
G|--------7-----7-----7-----------7-----7-----7----------------12------12------12------
D|--------6-----6-----6-----------6-----6-----6----------------11------11------11------
A|--7-----------------------7--------------------------12------------------------------
E|-------------------------------------------------------------------------------------

Stave 5:

E|-----7-----7-----7-----------------7--7--7-----7--7--6--6--5--5--3--3--------0----------0--------
B|-----0-----0-----0-----------------7--7--7-----7--7--6--6--5--5--3--3-----------3----------3--2--
G|--------7-----7--------------------8--8--8-----8--8--7--7--6--6--4--4--------------0h1-----------
D|--------6-----6--------------------9--9--9-----9-----8-----7-----5-------------------------------
A|--7----------------------------------------------------------------------------------------------
E|-----------------------4--5--6--7-----------------------------------------0----------------------

Stave 6:

E|--------------------------------------------------------5-----5-----5-----5--5--
B|--8-----8-----8-----8--8-----8-----8-----8-----8--8-----8-----------8-----8--8--
G|--7-----7-----7-----7--7-----7-----7-----7-----7--7-----6-----------6-----6--6--
D|--6-----6-----6-----6--6-----6-----6-----6-----6--6-----5--------5--5-----5--5--
A|--7-----7-----7-----7--7-----7-----7-----7-----7--7-----7--------7--7-----7--7--
E|--------------------------------------------------------5-----------5-----5--5--

Stave 7:

E|-----------------------------9-----9-----7--5---------------0----------0--------
B|--8-----8-----8-----8--8-----7-----7-----5-----8b9r8--5--------3----------3--0--
G|--7-----7-----7-----7--7-----8-----8-----6------------------------0h1-----------
D|--6-----6-----6-----6--6--------------------------------------------------------
A|--7-----7-----7-----7--7--------------------------------------------------------
E|--------------------------------------------------------------------------------

Stave 8:

E|--15--15-----15--15--15--12---------15-----15-----15--15--15--12---------
B|--15--15-----15--15--15------15-----15-----15-----15--15--15------15-----
G|--13--13-----13--13--13-------------13-----13-----13--13--13-------------
D|-------------------------------------------------------------------------
A|-------------------------------------------------------------------------
E|-------------------------------------------------------------------------

Stave 9:

E|--12-----12--12--12-----12--12--------0----------0-----------------------2--2--2-3--3--2--2--0--
B|--12-----12--12--12-----12--12-----------3----------3--------------------0--0--0-0--0--0--0--0--
G|--12-----12--12--12-----12--12--------------0h1-----------------------2--2--2--2\3--3--2--2-----
D|--11---------11-------------------------------------------------------1-------------------------
A|--12------------------------------------------------------0--1--2-------------------------------
E|-----------------------------------0-------------------4----------------------------------------

Stave 10:

E|--0----------0-----0----0--
B|-----3----------3--0h2--0--
G|--------0h1--------1----1--
D|-------------------2----2--
A|-------------------2----2--
E|-------------------0----0--

Stave 11:

E|--------------0------------------------------------------------7--
B|--3--2--2--1-----0--0----------------------3-------------------7--
G|--4--3--3--2-----0--1--------0-----0--2\4-----4/2--0-----------7--
D|--------------------2-----------2---------------------0--2-----6--
A|--------------------------2------------------------------------7--
E|-----------------------0------------------------------------------

http://www.guitartabcreator.com
Guitar Tab Creator is intended to store guitar tab created through the tool. It currently does not support in-line text editing. Any text you place in here will be lost. If you need to comment on your tab, please use the "Tab Notes" section located below.