Sound will begin in 5 seconds

Crying Waiting Hoping Solo

01234567891011121314151617181920212223
E
B
G
D
A
E
B
0 1 2 3 4 5 6 7 8 9 10 11 12 13 14 15 16 17 18 19 20 21 22 23
Song Science #1: How Pros Use 6 Chords to Write Hit Songs
(/) Slide Up  (\) Slide Down  (h) Hammer On  (p) Pull Off  (b) Bend (r) Release (v) Vibrato

Stave 1:

E|--5--5--5--------5--7--7--7--------7--9---9--9----------9--10--10--10--12--10--
B|--5-----5--5--------9-----9--9--------10-----10--10--------10------10----------
G|--6-----6-----6-----7-----7-----7-----9------9-------9-----11------11----------
D|--7-----7----------------------------------------------------------------------
A|--7-----7----------------------------------------------------------------------
E|-------------------------------------------------------------------------------

Stave 2:

E|--9---9---9---9-------------------------------------------10----------10--
B|--10--10--12--10-----12--12--12--10--9--10\12--10------9----------11------
G|--9---9---9---9---9--9---9---9---9---9-------------11---------12----------
D|--------------------------------------------------------------------------
A|--------------------------------------------------------------------------
E|--------------------------------------------------------------------------

Stave 3:

E|----9---9---9---9---9---9---12--9--12--9-------------10-----9--10--9------12--9-----------------
B|----10--10--10--10--10--10----------------10--------------------------10---------12--10---------
G|----9---9---9---9---9---9---------------------11--9------9-------------------------------11--9--
D|------------------------------------------------------------------------------------------------
A|------------------------------------------------------------------------------------------------
E|------------------------------------------------------------------------------------------------

Stave 4:

E|--10--14--10--12--10-------------------------------------------------10-----9-----------------------
B|--10------------------12--10---------------10--12b14--10--------------------------12-----11--10--9--
G|--11--------------------------12--------9-----------------11--10--9------9-----9------9-------------
D|----------------------------------12----------------------------------------------------------------
A|----------------------------------------------------------------------------------------------------
E|----------------------------------------------------------------------------------------------------

Stave 5:

E|--------------------10--12/10--9------------------------------0--
B|--10--------10------10------------10--------------------------0--
G|--------11--9-------11----------------11--9-------------------1--
D|----------------12--12-----------------------11/9--7----------2--
A|------------------------------------------------------9--7/2--2--
E|--------------------------------------------------------------0--

http://www.guitartabcreator.com
Guitar Tab Creator is intended to store guitar tab created through the tool. It currently does not support in-line text editing. Any text you place in here will be lost. If you need to comment on your tab, please use the "Tab Notes" section located below.