Sound will begin in 5 seconds

Karate Free Stylers- Breathe

01234567891011121314151617181920212223
E
B
G
D
A
E
B
0 1 2 3 4 5 6 7 8 9 10 11 12 13 14 15 16 17 18 19 20 21 22 23
Song Science #1: How Pros Use 6 Chords to Write Hit Songs
(/) Slide Up  (\) Slide Down  (h) Hammer On  (p) Pull Off  (b) Bend (r) Release (v) Vibrato

Stave 1:

E|----------------------------------------
B|----------------------------------------
G|----------8--8--8-----------------------
D|--5--5--5--8--8--8--8--8--8--10--10--10--
A|--5--5--5--6--6--6--8--8--8--10--10--10--
E|--3--3--3-----------6--6--6--8---8---8---

Stave 2:

E|--------------------------------------------------------------------
B|--------------------------------------------------------------------
G|-------5--3--5--3--5--3-----------3-----5--3--5--3--5--3--5b7b5--3--
D|-------------------------5--3--5-----5------------------------------
A|--------------------------------------------------------------------
E|----3---------------------------------------------------------------

http://www.guitartabcreator.com
Guitar Tab Creator is intended to store guitar tab created through the tool. It currently does not support in-line text editing. Any text you place in here will be lost. If you need to comment on your tab, please use the "Tab Notes" section located below.