Sound will begin in 5 seconds

Big Empty Bass Tab (Second Chorus and Combination Bridge)

01234567891011121314151617181920212223
E
B
G
D
A
E
B
0 1 2 3 4 5 6 7 8 9 10 11 12 13 14 15 16 17 18 19 20 21 22 23
Song Science #1: How Pros Use 6 Chords to Write Hit Songs
(/) Slide Up  (\) Slide Down  (h) Hammer On  (p) Pull Off  (b) Bend (r) Release (v) Vibrato

Stave 1:

G|--------------------------------------------------------------------------------------
D|-------------------------7-------7-----------------------10----------10------10p9-----
A|---------2----5-------7-------7-----7--5-----------10------------10------10--------10\
E|----3------------5----------------------------8---------------------------------------

Stave 2:

G|-------------------------------------------------------------------------------
D|-----------5------------------7-------7----------------------------------------
A|-----3--5-------5/------5--7-------7-----7--5----------------------------------
E|--3---------------5--5---------------------------8--7--8----8h10----7--8p7--5--

Stave 3:

G|-----------------------------------------------------------------------------------------
D|-----------------------7-------7-----------------------10--------10/12----------10\9-----
A|-------2----5-------7-------7-----7--5-----------10----------10-------------10--------10\
E|--3------------5----------------------------8--------------------------------------------

Stave 4:

G|-----------------------------------------------------------------------------
D|-----------5------------------7-------7--------------------------------------
A|-----3--5-------5/7-----5--7-------7-----7--5--------------------------------
E|--3------------------5-------------------------8--7--8\--0----0--1--1--2--2--

Stave 5:

G|----------------------------
D|----------------------------
A|----------------------------
E|--3----3----0--1--3------0--

Stave 6:

G|---------------------------------|----------------------------
D|---------------------------------|----------------------------
A|--7p5-----5----------------------|----------------------------
E|-------7-------7--6--5--3--5--3--|--3----3----0--1--3------0--

Stave 7:

G|-------------------------------------|--------------------------
D|-------------------------------------|--------------------------
A|----------5--7-----------5-----------|--------------------------
E|--0/5--7--------4--0--0-----7--5--4--|--3----3----0--1--3----0--

Stave 8:

G|------------------------------------------|------------------------------
D|------------------------------------------|------------------------------
A|---------------------------5--------------|------------------------------
E|--0--5--3--0--3------5--7-----8--7--5--4--|--3----3----0--1--3----0------

Stave 9:

G|-----9--11--12--11--9--7-------7--------------------------
D|--9-----------------------8/9-----7\5--7/9-----5/6\5------
A|--------------------------------------------7-----------7\
E|----------------------------------------------------------

Stave 10:

G|----------------6----7----6----------------------------------6----7----7/9----7----6----7\
D|-------------------------------5----------------------------------------------------------
A|-------7--7-------------------------7---------5-----7--7----------------------------------
E|--1/7--------7-----------------------------7-----7--------7-------------------------------

Stave 11:

G|------------------6----7----6-----------------------------------6----7----6------------------------
D|---------------------------------5---------------------------------------------5-------------5-----
A|-------7--7---------------------------7\-------5-----7--7---------------------------7-----5-----5--
E|--1/7--------7----------------------------1/7-----7--------7---------------------------7-----------

Stave 12:

G|---------------6----7----6-----------------------------------6----7----6------------------------
D|------------------------------5---------------------------------------------5-------------5-----
A|----7--7---------------------------7\-------5-----7--7---------------------------7-----5-----7--
E|----------7----------------------------1/7-----7--------7---------------------------7-----------

http://www.guitartabcreator.com
Guitar Tab Creator is intended to store guitar tab created through the tool. It currently does not support in-line text editing. Any text you place in here will be lost. If you need to comment on your tab, please use the "Tab Notes" section located below.