Sound will begin in 5 seconds

Ode

Chords
01234567891011121314151617181920212223
E
B
G
D
A
E
B
0 1 2 3 4 5 6 7 8 9 10 11 12 13 14 15 16 17 18 19 20 21 22 23
(/) Slide Up  (\) Slide Down  (h) Hammer On  (p) Pull Off  (b) Bend (r) Release (v) Vibrato

Intro/Main Riff:

Db|--------------------------------------------------------------------------------------------------
Ab|--------------------------------------------------------------------------------------------------
E |--------------------------------------------------------------------------------------------------
B |--------------3-----------------3--5b6b5p3-----------------3--------------------------------------
Gb|--------3--5--------------3--5-----------------------3--5--------------3--5-----3--5-----3--5-----
B |--0--0-----------0--0--0-----------------------0--0-----------0--0--0--------0--------0--------0--

Verse Riff:

Db|--------------------------------------------------------------------------------------------------------------
Ab|--------------------------------------------------------------------------------------------------------------
E |--------------------------------------------------------------------------------------------------------------
B |--------------------------------------------1-----------------------------------------------------10--11--12--
Gb|--------3--5-----------------3--5-----------1-----------3--5-----------------3--5-----10--11--12--------------
B |--0--0--------0--0--0--0--0--------0--0--1--1-----0--0--------0--0--0--0--0--------0--------------------------

Chorus:

Db|-----------
Ab|-----------
E |-----------
B |--5--7--8--
Gb|--5--7--8--
B |--5--7--8--



Db|-----------
Ab|-----------
E |-----------
B |--5--3--1--
Gb|--5--3--1--
B |--5--3--1--

Stave 5:

Db|--
Ab|--
E |--
B |--
Gb|--
B |--

http://www.guitartabcreator.com
Guitar Tab Creator is intended to store guitar tab created through the tool. It currently does not support in-line text editing. Any text you place in here will be lost. If you need to comment on your tab, please use the "Tab Notes" section located below.