Sound will begin in 5 seconds

Kimi No Na Wa - Kataware Doki

Chords
01234567891011121314151617181920212223
E
B
G
D
A
E
B
0 1 2 3 4 5 6 7 8 9 10 11 12 13 14 15 16 17 18 19 20 21 22 23
(/) Slide Up  (\) Slide Down  (h) Hammer On  (p) Pull Off  (b) Bend (r) Release (v) Vibrato

(W|WW) Whole (H|HH) Half (Q|QQ) Quarter (E|EE) 8th (S|SS) 16th (T|TT) 32nd (X|XX) 64th

Stave 1:
t: W W W W W W
E|--3-----0-----3--1--------
B|--1--3--1-----1--3--------
G|--2--2--0-----2--2--------
D|--2-----------3--3--------
A|--0--3--3-----0--1--3-----
E|-----1--------------------

Stave 2:
t: W W W W W W W W W W
E|--3--3--3--3--0-----------------
B|-----------------3--3--1--3-----
G|--2--------------------------0--
D|-----------3--------------------
A|--------------------------3-----
E|--------------------------------

Stave 3:
t: W W W W W W W W W W W W W W W
E|-----3--3-----8--7--5--3--3--5--3-----0--1--0--------
B|--1--------1-----------------------------------3-----
G|-----2-----------------------------------------0-----
D|-----------------------------------------------------
A|--------------8-----------------3--------------------
E|-----------------------------------------------------

Stave 4:
t: W W W W W W W W W W
E|-----3-----3-----3--3--0-----------0--------
B|--1-----------------------3--3--1-----------
G|-----2--------------------------------------
D|--------------------3-----------------------
A|-----------------------------------3--------
E|--------------------------------------------

Stave 5:
t: W W W W W W W W W W W W
E|-----------------0--------------------------
B|-----------1--3-----3--1--1-----1-----1--1--
G|--------0--------------------0--------------
D|--------------------------------------------
A|--------------------0-----------------------
E|--3--------------------------------------1--

Stave 6:
t: W W W W W W W W W W
E|-----------0--------------3-----------
B|-----1--3-----3--1-----1-----1--3-----
G|--------------------------------------
D|--3-----------------------------------
A|--------------3-----------------------
E|--------------------------------3-----

Stave 7:
t: W W W W W W W W W W W W
E|-----------0-----------------------------------
B|-----1--3-----3-----1--1-----1-----1--1--------
G|--0-----------------------2--------------------
D|--------------------------------------------3--
A|--------------0--------------------------------
E|--------------------------------------1--------

Stave 8:
t: W W W W W W W W W
E|--------0--------------3-----------
B|--1--3-----3-----1--1--------1--3--
G|-----------------------------------
D|-----------------------------------
A|-----------3-----------------------
E|--------------------------------3--

Stave 9:
t: W W W W W W
E|-----------------------------3-----------0-----------------
B|--------1--3-----1-----------------------1-----------------
G|--0--------------0-----------2-----------0-----------------
D|-----------------2-----------0-----------------------------
A|-----------------0-----------1-----------3-----------------
E|-----------------------------------------------------------

Stave 10:
t:
E|--
B|--
G|--
D|--
A|--
E|--

http://www.guitartabcreator.com
Guitar Tab Creator is intended to store guitar tab created through the tool. It currently does not support in-line text editing. Any text you place in here will be lost. If you need to comment on your tab, please use the "Tab Notes" section located below.