Sound will begin in 5 seconds

;gfdgdf

Chords
01234567891011121314151617181920212223
E
B
G
D
A
E
B
0 1 2 3 4 5 6 7 8 9 10 11 12 13 14 15 16 17 18 19 20 21 22 23
Song Science #1: How Pros Use 6 Chords to Write Hit Songs
(/) Slide Up  (\) Slide Down  (h) Hammer On  (p) Pull Off  (b) Bend (r) Release (v) Vibrato

(W|WW) Whole (H|HH) Half (Q|QQ) Quarter (E|EE) 8th (S|SS) 16th (T|TT) 32nd (X|XX) 64th

Stave 1:
t: S S S S S S S S S S S S S S S S S S S S S S S S S S S S S
E|----------------------------------------------------------------------------------------
B|----------------------------------------------------------------------------------------
G|----------------------------------------------------------------------------------------
D|----------------------------------------------------------------------------------------
A|--------4--------4-----4--------4--------4-----4--------6--------7--------6--------4/6--
E|--4--4-----4--4-----4-----4--4-----4--4-----4-----6--6-----6--6-----6--6-----6--6-------

Stave 2:
t: S S S S S S S S S S S S S S S E E E E E E E E E E E E E E E E
E|-----------------------------------------------------------------------------------------------
B|-----------------------------------------------------------------------------------------------
G|-----------------------------------------------------------------------------------------------
D|-----------------------------------------------------------------------------------------------
A|--------4--------4-----4--------4--------4-----7--7--7--7--7--7--7--7--6--6--6--6--6--6--6--6--
E|--4--4-----4--4-----4-----4--4-----4--4-----4--7--7--7--7--7--7--7--7--6--6--6--6--6--6--6--6--

Stave 3:
t:
E|--
B|--
G|--
D|--
A|--
E|--

http://www.guitartabcreator.com
Guitar Tab Creator is intended to store guitar tab created through the tool. It currently does not support in-line text editing. Any text you place in here will be lost. If you need to comment on your tab, please use the "Tab Notes" section located below.