Track 1

Chords

01234567891011121314151617181920212223
E
B
G
D
A
E
B
0 1 2 3 4 5 6 7 8 9 10 11 12 13 14 15 16 17 18 19 20 21 22 23
(/) Slide Up  (\) Slide Down  (h) Hammer On  (p) Pull Off  (b) Bend (r) Release (v) Vibrato

Introduction

E|--------------------------------------------------------------------------------------------------------------------------------------------
B|--------------------------------------------------------------------------------------------------------------------------------------------
G|--------------0-----------------------0-----------------------0-----------------------0--------0-----------------------------------0--------
D|--------0-----------0-----------0-----------0-----------0-----------0-----------0-----------0-----4-----------4--------------0-----------0--
A|-----1-----1-----1-----------1-----1-----1-----1-----1-----1-----1-----------1-----1-----1--------------1-----------1-----1-----1-----1-----
E|--2--------------------2--------------------------2--------------------2-----------------------------2-----2-----2-----2--------------------

Introduction 2

E|-----------2-----1--------------2-----1-----1--3-----------3-----------------------3-----------------------------------------------------------------------------------------
B|--------0--------------------0-----------------0-----0-----------0-----------0-----------0-----------------------------------------------------------------------------------
G|-----0--------------------0--------------------0--------0-----0-----0-----0-----0-----0-----0--------------0--------------------0-----------------------0--------------------
D|--2--------------------2-----------------------0-----------------------------------------------------0-----------0--------0-----------0-----------0--------------0-----------
A|-----------------------------------------------2--------------------------------------------------1-----1-----1--------1-----1-----1-----1-----1-----1-----1--------------1--
E|-----------------------------------------------3-----------------------------------------------2--------------------2-----------------------2-----------------------2--------

Rhythm Guitar Galloping Intro

E|-----------------------------------------------------------
B|-----------------------------------------------------------
G|-----------------------------------------------------------
D|-----------------------------------------------------------
A|-----------------------------------------------------------
E|--21\5-----------------0--0--0--0-----0--0--0-----0--0--0--

Rhythm Guitar Intro

E|-------------------------------------------------------------------------------------------------------------------------------
B|-------------------------------------------------------------------------------------------------------------------------------
G|-------------------------------------------------------------------------------------------------------------------------------
D|--9--------------12-9--------------9--------------7-9--------------9--------------12-9--------------9--------------4-----5-----
A|--7--------------10-7--------------7--------------5-7--------------7--------------10-7--------------7--------------2-----3-----
E|--------0--0--------------0--0-----------0--0-------------0--0-----------0--0--------------0--0-----------0--0-----------------

Rhythm Verse 1/2

E|----------------------------------------------------------------------------------------------------------------------------------------------------------------------------------------------
B|----------------------------------------------------------------------------------------------------------------------------------------------------------------------------------------------
G|----------------------------------------------------------------------------------------------------------------------------------------------------------------------------------------------
D|--9--------------9--------------9--------------4-----5-----9--------------7-9-----------9--------------9--------------9--------------4-----5-----9--------------12-9--------------4-----5-----
A|--7--------------7--------------7--------------2-----3-----7--------------5-7-----------7--------------7--------------7--------------2-----3-----7--------------10-7--------------2-----3-----
E|--------0--0-----------0--0-----------0--0--------0--------------0--0----------0--0-----------0--0-----------0--0-----------0--0--------0--------------0--0--------------0--0--------0--------

Lead Verse 1/2

E|------------------------------------------------------------------------------------------------------------------------------------------------------------------------------------------------------
B|------------------------------------------------------------------------------------------------------------------------------------------------------------------------------------------------------
G|------------------------------------------------------------------------------------------------------------------------------------------------------------------------------------------------------
D|--9--------------9-----7--5-----9--------------4-----5-----12-----11-----9-----7--5-----9--------------9-----7--5-----9--------------4-----5--9--------------4-----5--------------12-----11-----9-----
A|--7-----5--7-----7--------------7-----5--8-----2-----3-----10-----9------7--------------7-----5--7-----7--------------7-----5--8-----2-----3--7-----5--8-----2-----3--------------10-----9------7-----
E|--------------------------------------------------0-------------------------------------------------------------------------------------0--------------------------------0--0-------------------------

Chorus

E|--------------------------------------------------------------
B|--------------------------------------------------------------
G|--------------------------------------------------------------
D|--9--9--9--9--7--7--7--7--4--4--4--4--5--5--5--5--------5--4--
A|--7--7--7--7--5--5--5--5--2--2--2--2--3--3--3--3--2--3--------
E|--------------------------------------------------------------

Chorus End

E|--------------------------------
B|--------------------------------
G|-----------------------6-----4--
D|--------5--4--7--4--5--4-----2--
A|--2--3--------------------------
E|--------------------------------

Rhythm Interval

E|-------------------------------------------------------
B|-------------------------------------------------------
G|-------------------------------------------------------
D|-------------------------------------------------------
A|--9--9--9--9--7--7--7--7--5--5--5--5--4--4--4--4--4-9--
E|--7--7--7--7--5--5--5--5--3--3--3--3--2--2--2--2--2-7--

Lead Interval

E|-------------------------------------------------------------------------------------------------------------------------------------------------------------------------------------------------------------------------------------------------------------------
B|-------------------------------------------------------------------------------------------------------------------------------------------------------------------------------------------------------------------------------------------------------------------
G|-------------------------------------------------------------------------------------------------------------------------------------------------------------------------------------------------------------------------------------------------------------------
D|-------------------------------------------------------------------------------------------------------------------------------------------------------------------------------------------------------------------------------------------------------------------
A|-------------------------------------------------------------------------------------------------------------------------------------------------------------------------------------------------------------------------------------------------------------5--3--
E|--5--7p---5--7p---5--7p---5--7p---3--5p---3--5p---3--5p---3--5p---2--3p---2--3p---2--3p---2--3p---0--2p---0--2p---0--2p---0--2p---5--7p---5--7p---5--7p---5--7p---3--5p---3--5p---3--5p---3--5p---2--3p---2--3p---2--3p---2--3p------2--3p---2--3p---2--3p---------

Bridge

E|--------------------------------------------------------------------------------------------------------------------------------------------------
B|--------------------------------------------------------------------------------------------------------------------------------------------------
G|--------------------------------------------------------------------------------------------------------------------------------------------------
D|--------4-----------4-----------4--5--4-----------4-----------4--7--4-----------4-----------4-----------4--5--4-----------4-----------4--7--4-----
A|--------2-----------2-----------2--3--2-----------2-----------2--5--2-----------2-----------2-----------2--3--2-----------2-----------2--5--2-----
E|--0--0--------0--0--------0--0--------------0--0--------0--0--------------0--0--------0--0--------0--0--------------0--0--------0--0--------------

Lead Bridge

E|--------------------------------------------------------------------------------------------------------------------------------------------------------------------------------
B|--11--10--9-----11--10--9-----11--10--9-----11--12--13-----11--10--9-----11--10--9-----11--10--9-----11--10--9-----11--10--9-----11--12--14--12--11--12--11--9--11--9--8--9--6--
G|--------------------------------------------------------------------------------------------------------------------------------------------------------------------------------
D|--------------------------------------------------------------------------------------------------------------------------------------------------------------------------------
A|--------------------------------------------------------------------------------------------------------------------------------------------------------------------------------
E|--------------------------------------------------------------------------------------------------------------------------------------------------------------------------------

							http://www.guitartabcreator.com
Tab Notes
The Acoustic Introduction is played with a tempo of 146, and the main song play by distortion guitars are played with a tempo of 200. This is the first full-length song I made and the first tab I made on this website.
genre
Instruments
{"strings":[[[".",".",".",".",".",".",".",".",".",".",".",".",".",".",".",".","_","_",".",".",".",".",".",".",".",".",".",".",".",".",".",".",".",".",".",".",".",".",".",".",".",".",".",".",".","."],[".",".",".",".",".",".",".",".",".",".",".",".",".",".",".",".","_","_",".",".",".",".",".",".",".",".",".",".",".",".",".",".",".",".",".",".",".",".",".",".",".",".",".",".",".","."],[".",".",".",".",0,".",".",".",".",".",".",".",0,".",".",".","_","_",".",".",0,".",".",".",".",".",".",".",0,".",".",0,".",".",".",".",".",".",".",".",".",".",".",0,".","."],[".",".",0,".",".",".",0,".",".",".",0,".",".",".",0,".","_",".",0,".",".",".",0,".",".",".",0,".",".",".",0,".",4,".",".",".",4,".",".",".",".",0,".",".",".",0],[".",1,".",1,".",1,".",".",".",1,".",1,".",1,".",1,".",1,".",1,".",1,".",".",".",1,".",1,".",1,".",".",".",".",1,".",".",".",1,".",1,".",1,".",1,"."],[2,".",".",".",".",".",".",2,".",".",".",".",".",".",".",".",2,"_",".",".",".",".",".",2,".",".",".",".",".",".",".",".",".",2,".",2,".",2,".",2,".",".",".",".",".","."]],[[".",".",".",2,".",1,".",".",".",".",2,".",1,".",1,3,".",".",".",3,".",".",".",".",".",".",".",3,".",".",".",".",".",".",".",".",".",".",".",".",".",".",".",".",".",".",".",".",".",".",".",".",".",".",".",".","."],[".",".",0,".",".",".",".",".",".",0,".",".",".",".",".",0,".",0,".",".",".",0,".",".",".",0,".",".",".",0,".",".",".",".",".",".",".",".",".",".",".",".",".",".",".",".",".",".",".",".",".",".",".",".",".",".","."],[".",0,".",".",".",".",".",".",0,".",".",".",".",".",".",0,".",".",0,".",0,".",0,".",0,".",0,".",0,".",0,".",".",".",".",0,".",".",".",".",".",".",0,".",".",".",".",".",".",".",0,".",".",".",".",".","."],[2,".",".",".",".",".",".",2,".",".",".",".",".",".",".",0,".",".",".",".",".",".",".",".",".",".",".",".",".",".",".",".",".",0,".",".",".",0,".",".",0,".",".",".",0,".",".",".",0,".",".",".",".",0,".",".","."],[".",".",".",".",".",".",".",".",".",".",".",".",".",".",".",2,".",".",".",".",".",".",".",".",".",".",".",".",".",".",".",".",1,".",1,".",1,".",".",1,".",1,".",1,".",1,".",1,".",1,".",1,".",".",".",".",1],[".",".",".",".",".",".",".",".",".",".",".",".",".",".",".",3,".",".",".",".",".",".",".",".",".",".",".",".",".",".",".",2,".",".",".",".",".",".",2,".",".",".",".",".",".",".",2,".",".",".",".",".",".",".",2,".","."]],[[".",".",".",".",".",".",".",".",".",".",".",".",".",".",".",".",".",".",".","."],[".",".",".",".",".",".",".",".",".",".",".",".",".",".",".",".",".",".",".","."],[".",".",".",".",".",".",".",".",".",".",".",".",".",".",".",".",".",".",".","."],[".",".",".",".",".",".",".",".",".",".",".",".",".",".",".",".",".",".",".","."],[".",".",".",".",".",".",".",".",".",".",".",".",".",".",".",".",".",".",".","."],[21,"\\",5,".",".",".",".",".",0,0,0,0,".",0,0,0,".",0,0,0]],[[".",".",".",".",".",".",".",".",".",".",".",".",".",".",".",".",".",".",".",".",".",".",".",".",".",".",".",".",".",".",".",".",".",".",".",".",".",".",".",".",".",".",".",".","."],[".",".",".",".",".",".",".",".",".",".",".",".",".",".",".",".",".",".",".",".",".",".",".",".",".",".",".",".",".",".",".",".",".",".",".",".",".",".",".",".",".",".",".",".","."],[".",".",".",".",".",".",".",".",".",".",".",".",".",".",".",".",".",".",".",".",".",".",".",".",".",".",".",".",".",".",".",".",".",".",".",".",".",".",".",".",".",".",".",".","."],[9,".",".",".",".",12,"\\",9,".",".",".",".",9,".",".",".",".",7,"/",9,".",".",".",".",9,".",".",".",".",12,"\\",9,".",".",".",".",9,".",".",".",".",4,".",5,"."],[7,".",".",".",".",10,"\\",7,".",".",".",".",7,".",".",".",".",5,"/",7,".",".",".",".",7,".",".",".",".",10,"\\",7,".",".",".",".",7,".",".",".",".",2,".",3,"."],[".",".",0,0,".",".",".",".",".",0,0,".",".",".",0,0,".",".",".",".",".",0,0,".",".",".",0,0,".",".",".",".",".",0,0,".",".",".",0,0,".",".",".",".","."]],[[".",".",".",".",".",".",".",".",".",".",".",".",".",".",".",".",".",".",".",".",".",".",".",".",".",".",".",".",".",".",".",".",".",".",".",".",".",".",".",".",".",".",".",".",".",".",".",".",".",".",".",".",".",".",".",".",".",".",".",".",".",".",".",".","."],[".",".",".",".",".",".",".",".",".",".",".",".",".",".",".",".",".",".",".",".",".",".",".",".",".",".",".",".",".",".",".",".",".",".",".",".",".",".",".",".",".",".",".",".",".",".",".",".",".",".",".",".",".",".",".",".",".",".",".",".",".",".",".",".","."],[".",".",".",".",".",".",".",".",".",".",".",".",".",".",".",".",".",".",".",".",".",".",".",".",".",".",".",".",".",".",".",".",".",".",".",".",".",".",".",".",".",".",".",".",".",".",".",".",".",".",".",".",".",".",".",".",".",".",".",".",".",".",".",".","."],[9,".",".",".",".",9,".",".",".",".",9,".",".",".",".",4,".",5,".",9,".",".",".",".",7,"/",9,".",".",".",9,".",".",".",".",9,".",".",".",".",9,".",".",".",".",4,".",5,".",9,".",".",".",".",12,"\\",9,".",".",".",".",4,".",5,"."],[7,".",".",".",".",7,".",".",".",".",7,".",".",".",".",2,".",3,".",7,".",".",".",".",5,"/",7,".",".",".",7,".",".",".",".",7,".",".",".",".",7,".",".",".",".",2,".",3,".",7,".",".",".",".",10,"\\",7,".",".",".",".",2,".",3,"."],[".",".",0,0,".",".",".",0,0,".",".",".",0,0,".",".",0,".",".",".",".",0,0,".",".",".",".",0,0,".",".",".",0,0,".",".",".",0,0,".",".",".",0,0,".",".",0,".",".",".",".",0,0,".",".",".",".",".",0,0,".",".",0,".","."]],[[".",".",".",".",".",".",".",".",".",".",".",".",".",".",".",".",".",".",".",".",".",".",".",".",".",".",".",".",".",".",".",".",".",".",".",".",".",".",".",".",".",".",".",".",".",".",".",".",".",".",".",".",".",".",".",".",".",".",".",".",".",".",".","."],[".",".",".",".",".",".",".",".",".",".",".",".",".",".",".",".",".",".",".",".",".",".",".",".",".",".",".",".",".",".",".",".",".",".",".",".",".",".",".",".",".",".",".",".",".",".",".",".",".",".",".",".",".",".",".",".",".",".",".",".",".",".",".","."],[".",".",".",".",".",".",".",".",".",".",".",".",".",".",".",".",".",".",".",".",".",".",".",".",".",".",".",".",".",".",".",".",".",".",".",".",".",".",".",".",".",".",".",".",".",".",".",".",".",".",".",".",".",".",".",".",".",".",".",".",".",".",".","."],[9,".",".",".",".",9,".",7,5,".",9,".",".",".",".",4,".",5,".",12,".",11,".",9,".",7,5,".",9,".",".",".",".",9,".",7,5,".",9,".",".",".",".",4,".",5,9,".",".",".",".",4,".",5,".",".",".",".",12,".",11,".",9,"."],[7,".",5,7,".",7,".",".",".",".",7,".",5,8,".",2,".",3,".",10,".",9,".",7,".",".",".",".",7,".",5,7,".",7,".",".",".",".",7,".",5,8,".",2,".",3,7,".",5,8,".",2,".",3,".",".",".",".",10,".",9,".",7,"."],[".",".",".",".",".",".",".",".",".",".",".",".",".",".",".",".",0,".",".",".",".",".",".",".",".",".",".",".",".",".",".",".",".",".",".",".",".",".",".",".",".",".",".",".",0,".",".",".",".",".",".",".",".",".",".",0,0,".",".",".",".",".",".","."]],[[".",".",".",".",".",".",".",".",".",".",".",".",".",".",".",".",".",".",".","."],[".",".",".",".",".",".",".",".",".",".",".",".",".",".",".",".",".",".",".","."],[".",".",".",".",".",".",".",".",".",".",".",".",".",".",".",".",".",".",".","."],[9,9,9,9,7,7,7,7,4,4,4,4,5,5,5,5,".",".",5,4],[7,7,7,7,5,5,5,5,2,2,2,2,3,3,3,3,2,3,".","."],[".",".",".",".",".",".",".",".",".",".",".",".",".",".",".",".",".",".",".","."]],[[".",".",".",".",".",".",".",".",".","."],[".",".",".",".",".",".",".",".",".","."],[".",".",".",".",".",".",".",6,".",4],[".",".",5,4,7,4,5,4,".",2],[2,3,".",".",".",".",".",".",".","."],[".",".",".",".",".",".",".",".",".","."]],[[".",".",".",".",".",".",".",".",".",".",".",".",".",".",".",".",".",".","."],[".",".",".",".",".",".",".",".",".",".",".",".",".",".",".",".",".",".","."],[".",".",".",".",".",".",".",".",".",".",".",".",".",".",".",".",".",".","."],[".",".",".",".",".",".",".",".",".",".",".",".",".",".",".",".",".",".","."],[9,9,9,9,7,7,7,7,5,5,5,5,4,4,4,4,4,"/",9],[7,7,7,7,5,5,5,5,3,3,3,3,2,2,2,2,2,"/",7]],[[".",".",".",".",".",".",".",".",".",".",".",".",".",".",".",".",".",".",".",".",".",".",".",".",".",".",".",".",".",".",".",".",".",".",".",".",".",".",".",".",".",".",".",".",".",".",".",".",".",".",".",".",".",".",".",".",".",".",".",".",".",".",".",".",".",".",".",".",".",".",".",".",".",".",".",".",".",".",".",".",".",".",".",".",".",".",".",".",".",".",".",".",".",".",".",".",".",".",".",".",".",".",".",".",".",".",".",".",".",".",".",".",".",".",".",".",".",".",".",".",".",".",".",".",".",".","."],[".",".",".",".",".",".",".",".",".",".",".",".",".",".",".",".",".",".",".",".",".",".",".",".",".",".",".",".",".",".",".",".",".",".",".",".",".",".",".",".",".",".",".",".",".",".",".",".",".",".",".",".",".",".",".",".",".",".",".",".",".",".",".",".",".",".",".",".",".",".",".",".",".",".",".",".",".",".",".",".",".",".",".",".",".",".",".",".",".",".",".",".",".",".",".",".",".",".",".",".",".",".",".",".",".",".",".",".",".",".",".",".",".",".",".",".",".",".",".",".",".",".",".",".",".",".","."],[".",".",".",".",".",".",".",".",".",".",".",".",".",".",".",".",".",".",".",".",".",".",".",".",".",".",".",".",".",".",".",".",".",".",".",".",".",".",".",".",".",".",".",".",".",".",".",".",".",".",".",".",".",".",".",".",".",".",".",".",".",".",".",".",".",".",".",".",".",".",".",".",".",".",".",".",".",".",".",".",".",".",".",".",".",".",".",".",".",".",".",".",".",".",".",".",".",".",".",".",".",".",".",".",".",".",".",".",".",".",".",".",".",".",".",".",".",".",".",".",".",".",".",".",".",".","."],[".",".",".",".",".",".",".",".",".",".",".",".",".",".",".",".",".",".",".",".",".",".",".",".",".",".",".",".",".",".",".",".",".",".",".",".",".",".",".",".",".",".",".",".",".",".",".",".",".",".",".",".",".",".",".",".",".",".",".",".",".",".",".",".",".",".",".",".",".",".",".",".",".",".",".",".",".",".",".",".",".",".",".",".",".",".",".",".",".",".",".",".",".",".",".",".",".",".",".",".",".",".",".",".",".",".",".",".",".",".",".",".",".",".",".",".",".",".",".",".",".",".",".",".",".",".","."],[".",".",".",".",".",".",".",".",".",".",".",".",".",".",".",".",".",".",".",".",".",".",".",".",".",".",".",".",".",".",".",".",".",".",".",".",".",".",".",".",".",".",".",".",".",".",".",".",".",".",".",".",".",".",".",".",".",".",".",".",".",".",".",".",".",".",".",".",".",".",".",".",".",".",".",".",".",".",".",".",".",".",".",".",".",".",".",".",".",".",".",".",".",".",".",".",".",".",".",".",".",".",".",".",".",".",".",".",".",".",".",".",".",".",".",".",".",".",".",".",".",".",".",".",".",5,3],[5,7,"p",".",5,7,"p",".",5,7,"p",".",5,7,"p",".",3,5,"p",".",3,5,"p",".",3,5,"p",".",3,5,"p",".",2,3,"p",".",2,3,"p",".",2,3,"p",".",2,3,"p",".",0,2,"p",".",0,2,"p",".",0,2,"p",".",0,2,"p",".",5,7,"p",".",5,7,"p",".",5,7,"p",".",5,7,"p",".",3,5,"p",".",3,5,"p",".",3,5,"p",".",3,5,"p",".",2,3,"p",".",2,3,"p",".",2,3,"p",".",2,3,"p",".",".",2,3,"p",".",2,3,"p",".",2,3,"p",".",".","."]],[[".","_",".",".",".",".",".",".",".",".",".",".",".",".",".",".",".",".",".",".",".",".",".",".",".","_",".",".",".",".",".",".",".",".",".",".",".",".",".",".",".",".",".",".",".",".",".","."],[".","_",".",".",".",".",".",".",".",".",".",".",".",".",".",".",".",".",".",".",".",".",".",".",".","_",".",".",".",".",".",".",".",".",".",".",".",".",".",".",".",".",".",".",".",".",".","."],[".","_",".",".",".",".",".",".",".",".",".",".",".",".",".",".",".",".",".",".",".",".",".",".",".","_",".",".",".",".",".",".",".",".",".",".",".",".",".",".",".",".",".",".",".",".",".","."],[".","_",4,".",".",".",4,".",".",".",4,5,4,".",".",".",4,".",".",".",4,7,4,".",".","_",4,".",".",".",4,".",".",".",4,5,4,".",".",".",4,".",".",".",4,7,4,"."],[".","_",2,".",".",".",2,".",".",".",2,3,2,".",".",".",2,".",".",".",2,5,2,".",".","_",2,".",".",".",2,".",".",".",2,3,2,".",".",".",2,".",".",".",2,5,2,"."],[0,0,".",".",0,0,".",".",0,0,".",".",".",".",0,0,".",".",0,0,".",".",".",".",0,0,".",".",0,0,".",".",0,0,".",".",".",".",0,0,".",".",0,0,".",".",".","."]],[[".",".",".",".",".",".",".",".",".",".",".",".",".",".",".",".",".",".",".",".",".",".",".",".",".",".",".",".",".",".",".",".",".",".",".",".",".",".",".",".",".",".",".",".",".",".",".",".","."],[11,10,9,".",11,10,9,".",11,10,9,".",11,12,13,".",11,10,9,".",11,10,9,".",11,10,9,".",11,10,9,".",11,10,9,".",11,12,14,12,11,12,11,9,11,9,8,9,6],[".",".",".",".",".",".",".",".",".",".",".",".",".",".",".",".",".",".",".",".",".",".",".",".",".",".",".",".",".",".",".",".",".",".",".",".",".",".",".",".",".",".",".",".",".",".",".",".","."],[".",".",".",".",".",".",".",".",".",".",".",".",".",".",".",".",".",".",".",".",".",".",".",".",".",".",".",".",".",".",".",".",".",".",".",".",".",".",".",".",".",".",".",".",".",".",".",".","."],[".",".",".",".",".",".",".",".",".",".",".",".",".",".",".",".",".",".",".",".",".",".",".",".",".",".",".",".",".",".",".",".",".",".",".",".",".",".",".",".",".",".",".",".",".",".",".",".","."],[".",".",".",".",".",".",".",".",".",".",".",".",".",".",".",".",".",".",".",".",".",".",".",".",".",".",".",".",".",".",".",".",".",".",".",".",".",".",".",".",".",".",".",".",".",".",".",".","."]]],"numberofstrings":6,"notes":["E","B","G","D","A","E","B"],"capo":0,"stringnotes":["E4","B3","G3","D3","A2","E2"],"comments":["Introduction","Introduction 2","Rhythm Guitar Galloping Intro","Rhythm Guitar Intro","Rhythm Verse 1/2","Lead Verse 1/2","Chorus","Chorus End","Rhythm Interval","Lead Interval","Bridge","Lead Bridge"],"timing":[[null,null,null,null,null,null,null,null,null,null,"W","W","W","W","W","W","W","W","W","W","W","W","W","W","W","W","W","W",null,"W","W","W","W","W","W","W","W","W","W","W","W","W","W","W","W","W","W"],[null,"W","W","W","W",null,"W",null,"W","W","W","W",null,"W",null,"W","W",null,"W","W","W","W","W","W",null,"W","W","W","W","W","W","W","W",null,"W","W","W","W","W","W","W","W","W","W","W","W","W",null,"W","W","W","W","W","W","W",null,"W","W"],[null,"W",null,null,null,null,null,"W",null,null,"W","W","W",null,"W","W","W",null,"W","W","W"],[null,"W",null,"W","W",null,null,null,null,null,"W","W","W","H",null,"W","W","W",null,"W","W",null,null,"W","W","W",null,"W",null,"W",null,"W","W",null,"W",null,"W","W",null,"W",null,"W",null,"W","W",null,"W",null,"W","W",null,"W",null,"W",null,"W","W"],["W","W","W","W","W","W","W","W","W","W","W","W","W","W","W","W","W","W","W","W","W","W","W","W","W","W","W","W","W","W","W","W","W","W","W","W","W","W","W","W","W","W","W","W","W","W","W","W","W","W",null,"W",null,null,null,"W",null,"W",null,"W","W",null,"W","W","W"],[null,"W",null,"W","W",null,"W",null,"W","W",null,"W",null,"W","W","W","W","W","W",null,null,null,null,null,null,null,null,null,null,null,null,null,null,null,null,null,null,null,"W",null,null,null,null,null,null,null,null,null,null,null,null,null,null,null,null,null,"W","W",null,null,null,null,null,null,"W","W"],[null,"W","W",null,null,null,"W","W","W","W","W","W","W","W","W","W","W",null,"W","W","W",null,null,null,null,null,null,null,null,null,null,null,null,null,null,null,null,null,null,null,null,null,null,null,null,null,null,null,null,null,null,null,null,null,null,null,null,null,null,null,null,null,null,null,"W"],[null,"W","W","W","W","W","W","W","W",null,"W"],[null,"W","W","W","W","W","W","W","W","W","W","W","W","W","W","W","W","W",null,"W","W"],[null,"W","W","W","W",null,null,null,null,null,null,null,null,null,null,null,null,null,null,null,null,"W","W",null,null,null,null,null,null,null,null,null,null,null,null,null,null,null,null,null,null,"W",null,"W",null,null,null,null,null,null,null,null,null,null,null,null,null,null,null,null,null,"W","W",null,null,null,null,null,null,null,null,null,null,null,null,null,null,null,null,null,null,null,null,null,null,null,null,null,null,null,null,null,null,null,null,null,null,null,null,null,null,null,null,null,null,null,null,null,null,null,null,null,null,null,null,null,null,null,null,null,null,null,null,null,null,null,null,null,"W",null,null,null,null,null,null,null,null,null,null,null,null,null,null,null,"W",null,null,null,"W",null,null,null,"W","W",null,null,"W","W","W","W","W"],[null,"W","W","W",null,"W","W","W",null,"W","W","W",null,"W",null,"W","W","W",null,"W","W","W","W","W"],[null,"W","W","W",null,null,null,null,null,null,null,null,null,null,null,null,null,null,null,null,null,"W",null,null,null,null,null,null,null,null,null,null,null,null,null,null,null,null,null,null,"W","W","W","W","W","W","W","W","W","W"]],"timingvisible":false,"tabcounter":127,"stave":9,"totalstaves":12,"instrument":"6guitar","selectedtuning":"6_standard","version":"13"}

Member for

2 months 2 weeks
Picture
About Me
Just a small creator with a taste in Thrash Metal and Hard Rock. Currently still a beginner and still learning guitar but wants to make songs to help practice and learn song making and guitar.
Submitted by SiphonicBlock68 on Thu, 2020-10-29 11:39