cant help

01234567891011121314151617181920212223
E
B
G
D
A
E
B
0 1 2 3 4 5 6 7 8 9 10 11 12 13 14 15 16 17 18 19 20 21 22 23
(/) Slide Up  (\) Slide Down  (h) Hammer On  (p) Pull Off  (b) Bend (r) Release (v) Vibrato

Stave 1:

E|--------------------------3-----------------------------0-----------------0--------------
B|-----1--------1--------------0-----0-----------1-----------1-----------1-----------------
G|--------0--------0--------------0-----0-----------2-----------2-----2--------------------
D|-----------2--------2--------------------0-----------2-----------------------------------
A|-----3--------------------2--------------------0-----------------0-----------------------
E|-----------------------------------------------------------------------------------------

Stave 2:

E|--------0-----1--------------------0-----------------------------0-----------------0-----
B|-----3-----------1-----1--------------1-----1-----------3-----------3-----------3-----3--
G|--------------------2-----2--------------0-----0-----------0-----------0-----0-----------
D|-----------------------------3--------------------2-----------0--------------------------
A|--------------3--------------------3-----------------------------------------------------
E|--------------------------------------------------------3-----------------3--------------

Stave 3:

E|--------------------------------------------------------------0--------------0--1--
B|--------------------------------0--------0-----------1-----------1--------3--------
G|-----0--2--------2-----------------0--------0-----------2-----------2--------------
D|--------3--3--------3-----------------0--------0-----------2-----------------------
A|--------------3--------3-----------------------------0-----------------------------
E|--------1-----------------------3--------3-----------------------------------------

Stave 4:

E|-----0-----------------------------------------------------------
B|--------1-----------0--------0-----------1--------1--------------
G|-----------0-----------0--------0-----------0--------0-----------
D|--------------2-----------0--------0-----------2--------2--------
A|-----3-----------------------------------3--------------------3--
E|--------------------3--------------------------------------------

Stave 5:

E|--
B|--
G|--
D|--
A|--
E|--

							http://www.guitartabcreator.com
Chords

Tab Notes
19:28
Instruments
{"strings":[[[".",".",".",".",".",".",".",".",3,".",".",".",".",".",".",".",".",".",0,".",".",".",".",".",0,".",".",".","."],[".",1,".",".",1,".",".",".",".",0,".",0,".",".",".",1,".",".",".",1,".",".",".",1,".",".",".",".","."],[".",".",0,".",".",0,".",".",".",".",0,".",0,".",".",".",2,".",".",".",2,".",2,".",".",".",".",".","."],[".",".",".",2,".",".",2,".",".",".",".",".",".",0,".",".",".",2,".",".",".",".",".",".",".",".",".",".","."],[".",3,".",".",".",".",".",".",2,".",".",".",".",".",".",0,".",".",".",".",".",0,".",".",".",".",".",".","."],[".",".",".",".",".",".",".",".",".",".",".",".",".",".",".",".",".",".",".",".",".",".",".",".",".",".",".",".","."]],[[".",".",0,".",1,".",".",".",".",".",".",0,".",".",".",".",".",".",".",".",".",0,".",".",".",".",".",0,"."],[".",3,".",".",".",1,".",1,".",".",".",".",1,".",1,".",".",".",3,".",".",".",3,".",".",".",3,".",3],[".",".",".",".",".",".",2,".",2,".",".",".",".",0,".",0,".",".",".",0,".",".",".",0,".",0,".",".","."],[".",".",".",".",".",".",".",".",".",3,".",".",".",".",".",".",2,".",".",".",0,".",".",".",".",".",".",".","."],[".",".",".",".",3,".",".",".",".",".",".",3,".",".",".",".",".",".",".",".",".",".",".",".",".",".",".",".","."],[".",".",".",".",".",".",".",".",".",".",".",".",".",".",".",".",".",".",3,".",".",".",".",".",3,".",".",".","."]],[["_",".",".",".",".",".",".",".",".",".",".",".",".",".",".",".",".",".",".",".",0,".",".",".",".",0,1],["_",".",".",".",".",".",".",".",".",".",0,".",".",0,".",".",".",1,".",".",".",1,".",".",3,".","."],["_",0,2,".",".",2,".",".",".",".",".",0,".",".",0,".",".",".",2,".",".",".",2,".",".",".","."],["_",".",3,3,".",".",3,".",".",".",".",".",0,".",".",0,".",".",".",2,".",".",".",".",".",".","."],["_",".",".",".",3,".",".",3,".",".",".",".",".",".",".",".",".",0,".",".",".",".",".",".",".",".","."],["_",".",1,".",".",".",".",".",".",".",3,".",".",3,".",".",".",".",".",".",".",".",".",".",".",".","."]],[[".",0,".",".",".",".",".",".",".",".",".",".",".",".",".",".",".",".",".",".","."],[".",".",1,".",".",".",0,".",".",0,".",".",".",1,".",".",1,".",".",".","."],[".",".",".",0,".",".",".",0,".",".",0,".",".",".",0,".",".",0,".",".","."],[".",".",".",".",2,".",".",".",0,".",".",0,".",".",".",2,".",".",2,".","."],[".",3,".",".",".",".",".",".",".",".",".",".",".",3,".",".",".",".",".",".",3],[".",".",".",".",".",".",3,".",".",".",".",".",".",".",".",".",".",".",".",".","."]],[[],[],[],[],[],[]]],"numberofstrings":6,"notes":["E","B","G","D","A","E","B"],"capo":0,"stringnotes":["E4","B3","G3","D3","A2","E2"],"comments":["Stave 1:","Stave 2:","Stave 3:","Stave 4:","Stave 5:"],"timing":[[null,null,null,null,null,null,null,null,null,null,null,null,null,null,null,null,null,null,null,null,null,null,null,null,null,null,null],[null,null,null,null,null,"W",null,null,null,null,null,null,null,null,null,null,null,null,null,null,null,null,null,null,null,null,null,null,null,null],[null,null,"W","W",null,"W",null,"W","W",null,null,"W","W","W","W","W","W",null,null,"W","W","W","W","W",null,null,"W","W"],[null,null,"W","W","W","W",null,"W","W","W","W","W","W",null,"W","W","W","W","W","W",null,"W"],[]],"timingvisible":false,"tabcounter":21,"stave":3,"totalstaves":5,"instrument":"6guitar","selectedtuning":"6_standard","version":"13"}

Member for

1 month 3 weeks
Submitted by Sindre97 on Tue, 2020-12-01 16:33