Sound will begin in 5 seconds

Ambient A major

Chords
01234567891011121314151617181920212223
E
B
G
D
A
E
B
0 1 2 3 4 5 6 7 8 9 10 11 12 13 14 15 16 17 18 19 20 21 22 23
Song Science #1: How Pros Use 6 Chords to Write Hit Songs
(/) Slide Up  (\) Slide Down  (h) Hammer On  (p) Pull Off  (b) Bend (r) Release (v) Vibrato

Stave 1:

E|-----0-----0-----0-----5-----7-----0------0------17-----
B|-----2-----3-----4-----7-----9-----10-----13-----14-----
G|-----2-----2-----4-----7-----9-----9------11-----14-----
D|-----2-----0-----0-----x-----x-----0------12-----14-----
A|-----0-----2-----4-----5-----7-----9------0------0------
E|--------------------------------------------------------

Stave 2:

E|-----0-----7-----9------5-----7-----9------0------17-----
B|-----5-----7-----9------7-----9-----10-----13-----14-----
G|-----6-----7-----9------7-----9-----11-----11-----14-----
D|-----7-----9-----11-----0-----0-----0------12-----14-----
A|-----0-----x-----x-------------------------0------0------
E|---------------------------------------------------------

http://www.guitartabcreator.com
Guitar Tab Creator is intended to store guitar tab created through the tool. It currently does not support in-line text editing. Any text you place in here will be lost. If you need to comment on your tab, please use the "Tab Notes" section located below.