Sound will begin in 5 seconds

Ambient E major

Chords
01234567891011121314151617181920212223
E
B
G
D
A
E
B
0 1 2 3 4 5 6 7 8 9 10 11 12 13 14 15 16 17 18 19 20 21 22 23
Song Science #1: How Pros Use 6 Chords to Write Hit Songs
(/) Slide Up  (\) Slide Down  (h) Hammer On  (p) Pull Off  (b) Bend (r) Release (v) Vibrato

Stave 1:

E|-----0-----0-----0-----0-----0-----0-----0------0------
B|-----0-----0-----0-----0-----0-----0-----0------0------
G|-----1-----2-----4-----6-----8-----9-----11-----13-----
D|-----2-----2-----4-----7-----9-----9-----13-----14-----
A|-----2-----x-----x-----7-----9-----x-----12-----14-----
E|-----0-----2-----4-----5-----7-----9-----0------0------

Stave 2:

E|-----0-----0-----0-----0-----0-----0------0------16-----
B|-----0-----0-----0-----0-----0-----0------0------0------
G|-----1-----1-----4-----6-----8-----9------11-----13-----
D|-----2-----4-----6-----7-----9-----11-----13-----14-----
A|-----2-----4-----6-----7-----9-----11-----12-----14-----
E|-----0-----x-----x-----0-----x-----x------0------0------

Stave 3:

E|-----7-----9------11-----5-----7-----9------
B|-----9-----10-----12-----5-----7-----9------
G|-----9-----11-----13-----6-----8-----9------
D|-------------------------7-----9-----11-----
A|--------------------------------------------
E|--------------------------------------------

http://www.guitartabcreator.com
Guitar Tab Creator is intended to store guitar tab created through the tool. It currently does not support in-line text editing. Any text you place in here will be lost. If you need to comment on your tab, please use the "Tab Notes" section located below.