Sound will begin in 5 seconds

Sie Gubba - Finast jenta bass solo

01234567891011121314151617181920212223
E
B
G
D
A
E
B
0 1 2 3 4 5 6 7 8 9 10 11 12 13 14 15 16 17 18 19 20 21 22 23
(/) Slide Up  (\) Slide Down  (h) Hammer On  (p) Pull Off  (b) Bend (r) Release (v) Vibrato

Stave 1:

G|-------------------------------------------9-----9--11--13--11----------11--13--11----------
D|--------9--9--11--13--14--13--11--9--9--7-----7-----------------14--14--------------14--13--
A|--7--9--------------------------------------------------------------------------------------
E|--------------------------------------------------------------------------------------------

Stave 2:

G|-----------------------------------9----------------------------------
D|--14--13--14--13--11--11--9--9--7-----14--14--14--13--11--14--13--11--
A|----------------------------------------------------------------------
E|----------------------------------------------------------------------

Stave 3:

G|--------------------------------------------------9-----9--11--9-----11--9--------
D|--11--13--14--16--14--13--14--13--11--9--7--6--9-----9------------9---------9--7--
A|----------------------------------------------------------------------------------
E|----------------------------------------------------------------------------------

Stave 4:

G|------------------------------------------
D|--7--9--9--9--11--9--14--13--9---------9--
A|--------------------------------9--11-----
E|------------------------------------------

Stave 5:

G|----------------------
D|--9--11--9------------
A|------------11--9--7--
E|----------------------

http://www.guitartabcreator.com
Guitar Tab Creator is intended to store guitar tab created through the tool. It currently does not support in-line text editing. Any text you place in here will be lost. If you need to comment on your tab, please use the "Tab Notes" section located below.