Sound will begin in 5 seconds

This is living - Hillsong - Bass tabs

01234567891011121314151617181920212223
E
B
G
D
A
E
B
0 1 2 3 4 5 6 7 8 9 10 11 12 13 14 15 16 17 18 19 20 21 22 23
Song Science #1: How Pros Use 6 Chords to Write Hit Songs
(/) Slide Up  (\) Slide Down  (h) Hammer On  (p) Pull Off  (b) Bend (r) Release (v) Vibrato

Stave 1:

E|-------------------------------------------------------------------------------------
B|-------------------------------------------------------------------------------------
G|----------------11-13-------------16-------------------------------------16-14-13-11-
D|-------------14----------------13----16-------------14----16-18----------------------
A|-12-12-12-12----------14-14-14----------16-16-16-16----16----------------------------
E|----------------------------------------------------------------14-14-14-------------

Stave 2:

E|-----------------------------------------------------------------------
B|-----------------------------------------------------------------------
G|-----------------------------------------------------------------------
D|---7---7---7---7---9---9---9---9---11---11---11---11---4---4-----------
A|-----------------------------------------------------------------------
E|-5---5---5---5---7---7---7---7---9----9----9----9----2---2---2-0-2-4-5-

Stave 3:

E|-------------------------------------------------------------------------
B|-------------------------------------------------------------------------
G|----------------------------------------------------9-11-9-8-6-----------
D|--------6-7-4-----------9----------------11----9-11------------9-7-6-----
A|----4-7-------7-----5-7---9----------7-9----11-----------------------9-7-
E|--5-------------5-7---------7-11-7-9-------------------------------------

http://www.guitartabcreator.com
Guitar Tab Creator is intended to store guitar tab created through the tool. It currently does not support in-line text editing. Any text you place in here will be lost. If you need to comment on your tab, please use the "Tab Notes" section located below.