Sound will begin in 5 seconds

Almada estudante - bandolim3

01234567891011121314151617181920212223
E
B
G
D
A
E
B
0 1 2 3 4 5 6 7 8 9 10 11 12 13 14 15 16 17 18 19 20 21 22 23
Song Science #1: How Pros Use 6 Chords to Write Hit Songs
(/) Slide Up  (\) Slide Down  (h) Hammer On  (p) Pull Off  (b) Bend (r) Release (v) Vibrato

Stave 1:

E|--------------------------------------------------------------------------
A|-----------------------0v-----------------0v------------------------------
D|-----------0--2--2--2------5--3--2--2--2------5--3--2--2--2--0--2--0--2v--
G|--2--4--5-----------------------------------------------------------------

Stave 2:

E|--------------------------------------------------------------------------
A|-----------------------0v-----------------0v------------------------------
D|-----------0--2--2--2------5--3--2--2--2------5--3--2--2--2--0--2--0------
G|--2--4--5-------------------------------------------------------------5v--

Stave 3:

E|------0v-----------------------------------------------------------------
A|--3v------0v--3v---------------------2v----------------------------0-----
D|------------------2v--5v--3v-----6v------2v--6v--0v--2v---------2--------
G|---------------------------------------------------------5v--5-----------

Stave 4:

E|------0v-----------------------------------------------------------------
A|--3v------0v--3v---------------------------------------------------------
D|------------------2v--5v--3v-----------0--2--0v--3v--2v----------0v------
G|------------------------------3--4--6--------------------5v--4v------5v--

Stave 5:

E|--------------------------------------
A|--------------------------------------
D|--------2--3v--2v--0-----------0------
G|--2--5----------------5--5--4-----5v--

http://www.guitartabcreator.com
Guitar Tab Creator is intended to store guitar tab created through the tool. It currently does not support in-line text editing. Any text you place in here will be lost. If you need to comment on your tab, please use the "Tab Notes" section located below.