Sound will begin in 5 seconds

Pentatonic chord licks

Chords
01234567891011121314151617181920212223
E
B
G
D
A
E
B
0 1 2 3 4 5 6 7 8 9 10 11 12 13 14 15 16 17 18 19 20 21 22 23
(/) Slide Up  (\) Slide Down  (h) Hammer On  (p) Pull Off  (b) Bend (r) Release (v) Vibrato

Stave 1:

E|-5-x-----------------5-x-----------------
B|-7-x-----------------7-x-----------------
G|-7-x-----------------7-x-----------7h9-7-
D|-7-x-------7-9-7-----7-x-------7h9-------
A|-5-x-5-7-9-------9-7-5-x-5-7/9-----------
E|-----------------------------------------

Stave 2:

E|-7-x-------------------7-x-----------7----7-x----------------7-x-----------------
B|-7-x-------------------7-x---------7-7----7-x----------------7-x---------7-10/12-
G|-7-x-------------------7-x-----7h9---7----7-x---------7------7-x-----7h9---------
D|-9-x-----7-------------9-x-7h9------------9-x-----7h9---9----9-x-7h9-------------
A|-9-x-7h9---9-7---------9-x----------------9-x-7h9------------9-x-----------------
E|-7-x--------------10-7-7-x----------------7-x----------------7-x-----------------

Stave 3:

E|-
B|-
G|-
D|-
A|-
E|-

http://www.guitartabcreator.com
Guitar Tab Creator is intended to store guitar tab created through the tool. It currently does not support in-line text editing. Any text you place in here will be lost. If you need to comment on your tab, please use the "Tab Notes" section located below.