Sound will begin in 5 seconds

Close to you

01234567891011121314151617181920212223
E
B
G
D
A
E
B
0 1 2 3 4 5 6 7 8 9 10 11 12 13 14 15 16 17 18 19 20 21 22 23
(/) Slide Up  (\) Slide Down  (h) Hammer On  (p) Pull Off  (b) Bend (r) Release (v) Vibrato

-----------Cadd9---------------------------B7

E|------------------------------------0---------
B|----------------3----3----1----3---------0----
G|-----------0----------------------------------
D|----1\2---------------------------------------
A|----------------------------------------------
E|----------------------------------------------

------------Bm--------------Em

E|-----------2--------------3----
B|----0h3--------------3---------
G|----------------4--------------
D|-------------------------------
A|-------------------------------
E|-------------------------------

------C-------Cadd9--C------------Cadd9--C---------G

E|-----------------------------0------------------------
B|--------------3-------------------3--------------3----
G|---------0--------------0-------------------0---------
D|----2--------------2-------------------2--------------
A|------------------------------------------------------
E|------------------------------------------------------

http://www.guitartabcreator.com
Guitar Tab Creator is intended to store guitar tab created through the tool. It currently does not support in-line text editing. Any text you place in here will be lost. If you need to comment on your tab, please use the "Tab Notes" section located below.