Sound will begin in 5 seconds

Depths Of Kronos - Shadow Serenity

01234567891011121314151617181920212223
E
B
G
D
A
E
B
0 1 2 3 4 5 6 7 8 9 10 11 12 13 14 15 16 17 18 19 20 21 22 23
Song Science #1: How Pros Use 6 Chords to Write Hit Songs
(/) Slide Up  (\) Slide Down  (h) Hammer On  (p) Pull Off  (b) Bend (r) Release (v) Vibrato

Stave 1:

G|-----------------------------------------------------------------------------------
D|-----------------------------------------------------------------------------------
A|-----------------------------------------------------------------------------------
E|-----------------------------------------------------------------------------------
A|--13--10--12--0-----0-----0--0--0-----0--0--0-----0-----0--0--0-----0--0--0--------

Stave 2:

G|--------------------------------------------------------------------------------------
D|--------------------------------------------------------------------------------------
A|--------------------------------------------------------------------------------------
E|--------------------------------------------------------------------------------------
A|--13--10--12--0-----0--0--0--0--0--0--0--0--0-----0--0--0-----0--0--0-----8--8--8--0--

Stave 3:

G|-----------------------------------------------------------------------------
D|-----------------------------------------------------------------------------
A|-----------------------------------------------------------------------------
E|-----------------------------------------------------------------------------
A|--0-----0--0--0-----0--0--0-----0-----0--0--0-----0--0--0-----13--10--12--0--

Stave 4:

G|------------------------------------------------------------------------
D|------------------------------------------------------------------------
A|------------------------------------------------------------------------
E|------------------------------------------------------------------------
A|--0--0--0--0--0--0--0--0--0-----0--0--0-----8--8--8--8--10--10--10--12--

Stave 5:

G|----------------------------------------------------------
D|----------------------------------------------------------
A|----------------------------------------------------------
E|----------------------------------------------------------
A|--12--12--12--12--10--10--10--10--8--8--8--8--5--5--5--5--

Stave 6:

G|-----------------------------------------------------------------------------------------------
D|-----------------------------------------------------------------------------------7--5--3--5--
A|--------3--7--3--5--3-----3-----2--------2--3--2--------3--2--3--2-----------------------------
E|-----------------------------------------------------1-----------------------------------------
A|--0--0-----------------0-----0-----0--0-----------0-----------------0-----0--0--0--------------

Stave 7:

G|-----------------------------------------------------------------------------------
D|-----------------------------------------------------------------------------------
A|-----------------------------------------------------------------------------------
E|-----------------------------------------------------------------------------------
A|--0--0--0--0-----0--0--0--0--0--0--0--0-----0--0--0--0-----0--0--0--0--0--0--0--0--

Stave 8:

G|-----------------------------------------------------------------------
D|-----------------------------------------------------------------------
A|-----------------------------------------------------------------------
E|-----------------------------------------------------------------------
A|--0--0--0--0-----0--0--0--0--0--0--0--0-----8--8--8--8--8--10--10--10--

Stave 9:

G|-----------------------------------------------------------------------------------
D|-----------------------------------------------------------------------------------
A|-----------------------------------------------------------------------------------
E|-----------------------------------------------------------------------------------
A|--0--0--0--0-----0--0--0--0--0--0--0--0-----0--0--0--0-----0--0--0--0--0--0--0--0--

Stave 10:

G|--------------------------------------------------------------------
D|--------------------------------------------------------------------
A|--------------------------------------------------------------------
E|--------------------------------------------------------------------
A|--0--0--0--0-----0--0--0--0--0--0--0--0-----8--8--8--8--8--5--5--5--

Stave 11:

G|--------------------------------------------------------------------------------------------------
D|--------------------------------------------------------------------------------------------------
A|--------------------------------------------------------------------------------------------------
E|--------------------------------------------------------------------------------------------------
A|--0--0--0--0--0--0--0--0--0--0--0--0--0--0--0--0--0--0--0--0--0--0--0--0--0--0--0--0--0--0--0--0--

Stave 12:

G|--------------------------------------------------------------------------------------------------
D|--------------------------------------------------------------------------------------------------
A|--------------------------------------------------------------------------------------------------
E|--------------------------------------------------------------------------------------------------
A|--7--7--7--7--7--7--7--7--7--7--7--7--7--7--7--7--8--8--8--8--8--8--8--8--5--5--5--5--5--5--5--5--

Stave 13:

G|--------------------------------------------------------------------------------------------------
D|--------------------------------------------------------------------------------------------------
A|--------------------------------------------------------------------------------------------------
E|--------------------------------------------------------------------------------------------------
A|--0--0--0--0--0--0--0--0--0--0--0--0--0--0--0--0--0--0--0--0--0--0--0--0--0--0--0--0--0--0--0--0--

Stave 14:

G|------------------------------------------------------------------------------------------------------
D|------------------------------------------------------------------------------------------------------
A|------------------------------------------------------------------------------------------------------
E|------------------------------------------------------------------------------------------------------
A|--7--7--7--7--7--7--7--7--7--7--7--7--7--7--7--7--8--8--8--8--8--8--8--8--10--10--10--10--8--8--8--8--

Stave 15:

G|-----
D|-----
A|-----
E|-----
A|--0--

Stave 16:

G|--------------------------------------------------------------------------------------------------
D|--------------------------------------------------------------------------------------------------
A|--------------------------------------------------------------------------------------------------
E|--5--5--5--5--5--5--5--5--5--5--5--5--5--5--5--5--5--5--5--5--5--5--5--5--8--8--8--8--3--3--3--3--
A|--------------------------------------------------------------------------------------------------

Stave 17:

G|--------------------------------------------------------------------------------------------------
D|--------------------------------------------------------------------------------------------------
A|--------------------------------------------------------------------------------------------------
E|--5--5--5--5--5--5--5--5--5--5--5--5--5--5--5--5--5--5--5--5--5--5--5--5--1--1--1--1--3--3--3--3--
A|--------------------------------------------------------------------------------------------------

Stave 18:

G|--------------------------------------------------------------------------------------------------
D|--------------------------------------------------------------------------------------------------
A|--------------------------------------------------------------------------------------------------
E|--------------------------------------------------------------------------1--1--1--1--3--3--3--3--
A|--0--0--0--0--0--0--0--0--0--0--0--0--0--0--0--0--0--0--0--0--0--0--0--0--------------------------

Stave 19:

G|--
D|--
A|--
E|--
A|--

Stave 20:

G|--------------------------------------------------------------------------------------------------
D|--------------------------------------------------------------------------------------------------
A|--------------------------------------------------------------------------------------------------
E|--5--5--5--5--5--5--5--5--5--5--5--5--5--5--5--5--1--1--1--1--1--1--1--1--3--3--3--3--3--3--3--3--
A|--------------------------------------------------------------------------------------------------

Stave 21:

G|--------------------------------------------------------------------------------------------------
D|--------------------------------------------------------------------------------------------------
A|--------------------------------------------------------------------------------------------------
E|--5--5--5--5--5--5--5--5--5--5--5--5--5--5--5--5--1--1--1--1--1--1--1--1--3--3--3--3--3--3--3--3--
A|--------------------------------------------------------------------------------------------------

Stave 22:

G|--------------------------------------------------------------------------------------------------
D|--------------------------------------------------------------------------------------------------
A|--------------------------------------------------------------------------------------------------
E|--5--5--5--5--5--5--5--5--5--5--5--5--5--5--5--5--1--1--1--1--1--1--1--1--------------------------
A|--------------------------------------------------------------------------5--5--5--5--5--5--5--5--

Stave 23:

G|--------------------------------------------------------------------------------------------------
D|--------------------------------------------------------------------------------------------------
A|--------------------------------------------------------------------------------------------------
E|--------------------------------------------------------------------------------------------------
A|--0--0--0--0--0--0--0--0--0--0--0--0--0--0--0--0--3--3--3--3--3--3--3--3--5--5--5--5--5--5--5--5--

Stave 24:

G|------------------------------------------------------------------------------------------------------
D|------------------------------------------------------------------------------------------------------
A|------------------------------------------------------------------------------------------------------
E|------------------------------------------------------------------------------------------------------
A|--0--0--0--0--0--0--0--0--0--0--0--0--0--0--0--0--8--8--8--8--8--8--8--8--10--10--10--10--10--10--12--

Stave 25:

G|-----------------------------------------------------------------------------------------------------
D|-----------------------------------------------------------------------------------------------------
A|-----------------------------------------------------------------------------------------------------
E|--5-----5--5--5-----5--5--5-----5--5--5-----5--5--1-----1--1--1-----1--1--------------------3--3--3--
A|--------------------------------------------------------------------------3-----3--3--3--------------

http://www.guitartabcreator.com
Guitar Tab Creator is intended to store guitar tab created through the tool. It currently does not support in-line text editing. Any text you place in here will be lost. If you need to comment on your tab, please use the "Tab Notes" section located below.