Sound will begin in 5 seconds

Ang Huling El Bimbo Fingerstyle

Chords
01234567891011121314151617181920212223
E
B
G
D
A
E
B
0 1 2 3 4 5 6 7 8 9 10 11 12 13 14 15 16 17 18 19 20 21 22 23
Song Science #1: How Pros Use 6 Chords to Write Hit Songs
(/) Slide Up  (\) Slide Down  (h) Hammer On  (p) Pull Off  (b) Bend (r) Release (v) Vibrato

Stave 1:

E|--------------------------------------------------------------------------------------------
B|--------3--------3--------3--------3--------3--------2--------2--------2--------2--------2--
G|-----0--------0--------0--------0--------0--------0--------0--------0--------0--------0-----
D|--------------------------------------------------------------------------------------------
A|-----------------------------------------------0--------0--------0--------0--------0--------
E|--3--------3--------3--------3--------3-----------------------------------------------------

Stave 2:

E|-----------------------------------------------3--
B|--------1--------1--------1--------1--------1--3--
G|-----0--------0--------0--------0--------0-----0--
D|-----------------------------------------------0--
A|--3--------3--------3--------3--------3--------2--
E|-----------------------------------------------3--

Stave 3:

E|---------------------------------------------0-------------------------------------------------
B|------------------------------2--------2-----1--------------------0h1--0--------0--------------
G|--0h2--2/4--4--2/4--2p2h0--------0--------0--0-----0--0--0--0--0-------0-----0--------0--------
D|---------------------------------------------0-------------------------------------------------
A|----------------------0----0--------0--------3--3--------3-----3-------2--------------------2--
E|---------------------------------------------x-------------------------3--3--------3-----3-----

Stave 4:

E|--------------0---------------------------------------3----------------------------------------
B|--0--0--0--3----------------------0--1--1h3--1--0--3--3--0--0--1--3--------3-----3/5--3--2-----
G|--------------------2p0--2-----2-----0----------0-----0--------------0--------0-------------2--
D|------------------------------------------------------0-----------------0----------------------
A|-----------------0-------0--0--------3----3-----------2----------------------------------0-----
E|--------3---------------------------------------3-----3-----------3--------3-------------------

Stave 5:

E|------------------------------------------------------------------------------------------------------
B|-----------0--1--1h3--1--0--3--0--0--------0--0--0--------------------------1-----------0h1--0--------
G|--------2-----0----------0-----------0--0--0--------0--0--2--0--0--0--------0--------0----------------
D|--2-------------------------------------------------------------------2--2--------2----------------0--
A|-----0--------3----3--------------------------------------0-----------------3--3----------------------
E|-------------------------3-----------------3----------------------------------------------------3-----

Stave 6:

E|--3-----------------------------0--------x----------------x----------------------0-----------------
B|--3-----------------------------------3--x--0-------1--0--x-------------------3-----3--------------
G|--------------------0--0--0--0-----3--0--x--2--0h2--0-----x--2--0h2--2-----2-----------2-----------
D|-----------------2-----------------------x----------------x-------------0-----------------0--------
A|--------------2--------------------------x----------3-----x--3----------------------------------2--
E|--3--3--2--0--------------0-----------3--x--3-------------x----------------------------------0-----

Stave 7:

E|-----------0--x--------x----------------x--------x--0-----0--
B|--------------x--3--0--x--0-------1--0--x--1--3--x-----3--3--
G|--0--0--0-----x--0-----x--2--0h2--0-----x--0-----x--------2--
D|--------------x--------x----------------x--------x--0-----0--
A|--------------x--------x----------3-----x--3-----x-----------
E|--------0-----x--3-----x--3-------------x--------x-----------

Stave 8:

E|-----------------x--3-------------x--3-----------------x--------------------------3-------------
B|--0--1--3-----3--x-----3\2-----2--x--2--2--0--1-----1--x--3--1--0--3--0--0--3--3--3--3\2-----2--
G|--------------0--x-------------0--x-----------------0--x--0-----0----------------------------0--
D|-----------------x----------------x--------------------x----------------------------------------
A|-----------------x----------0-----x--0-----------3-----x--3-------------------------------0-----
E|-----------3-----x--3-------------x--------------------x--------3-----------3-----3-------------

Stave 9:

E|--x--3------------------------3--
B|--x--2--2h0--1-----1--3--3/5--3--
G|--x----------------0--0-------0--
D|--x---------------------------0--
A|--x--0----------3-----3-------2--
E|--x---------------------------3--

http://www.guitartabcreator.com
Guitar Tab Creator is intended to store guitar tab created through the tool. It currently does not support in-line text editing. Any text you place in here will be lost. If you need to comment on your tab, please use the "Tab Notes" section located below.