Sweet Home Alabama (First two riffs)

01234567891011121314151617181920212223
E
B
G
D
A
E
B
0 1 2 3 4 5 6 7 8 9 10 11 12 13 14 15 16 17 18 19 20 21 22 23
(/) Slide Up  (\) Slide Down  (h) Hammer On  (p) Pull Off  (b) Bend (r) Release (v) Vibrato

Stave 1:

E|--------------|--------------|--------------|-----------------------
B|--------3-----|--------3-----|--------------|-----------------------
G|-----------2--|-----------0--|--------0--0--|------------------2p0--
D|--0--0--------|--------------|--------------|-------0h2--0----------
A|--------------|--3--3--------|--------------|--0h2----------3-------
E|--------------|--------------|--3--3--------|-----------------------

Stave 2:

E|--------------|--------------|--------------|-----------------------
B|--------3-----|--------3-----|--------------|-----------------------
G|-----------2--|-----------0--|--------0--0--|--0--2p0--0--4p0--0--5b
D|--0--0--------|--------------|--------------|-----------------------
A|--------------|--3--3--------|--------------|-----------------------
E|--------------|--------------|--3--3--------|-----------------------

							http://www.guitartabcreator.com
Chords

Instruments
{"strings":[[[".",".",".",".","|",".",".",".",".","|",".",".",".",".","|",".",".",".",".",".",".",".",".",".",".","."],[".",".",3,".","|",".",".",3,".","|",".",".",".",".","|",".",".",".",".",".",".",".",".",".",".","."],[".",".",".",2,"|",".",".",".",0,"|",".",".",0,0,"|",".",".",".",".",".",".",".",".",2,"p",0],[0,0,".",".","|",".",".",".",".","|",".",".",".",".","|",".",".",".",0,"h",2,0,".",".",".","."],[".",".",".",".","|",3,3,".",".","|",".",".",".",".","|",0,"h",2,".",".",".",".",3,".",".","."],[".",".",".",".","|",".",".",".",".","|",3,3,".",".","|",".",".",".",".",".",".",".",".",".",".","."]],[[".",".",".",".","|",".",".",".",".","|",".",".",".",".","|",".",".",".",".",".",".",".",".",".",".","."],[".",".",3,".","|",".",".",3,".","|",".",".",".",".","|",".",".",".",".",".",".",".",".",".",".","."],[".",".",".",2,"|",".",".",".",0,"|",".",".",0,0,"|",0,2,"p",0,0,4,"p",0,0,5,"b"],[0,0,".",".","|",".",".",".",".","|",".",".",".",".","|",".",".",".",".",".",".",".",".",".",".","."],[".",".",".",".","|",3,3,".",".","|",".",".",".",".","|",".",".",".",".",".",".",".",".",".",".","."],[".",".",".",".","|",".",".",".",".","|",3,3,".",".","|",".",".",".",".",".",".",".",".",".",".","."]]],"numberofstrings":6,"notes":["E","B","G","D","A","E","B"],"capo":0,"stringnotes":["E4","B3","G3","D3","A2","E2"],"comments":["Stave 1:","Stave 2:"],"timing":[["W","W","W","W","W","W","W","W","W",null,"W","W","W","W",null,"W",null,"W","W",null,"W","W","W","W",null,"W"],["W","W","W","W",null,"W","W","W","W",null,"W","W","W","W",null,"W","W",null,"W","W","W",null,"W","W","W"]],"timingvisible":false,"tabcounter":26,"stave":1,"totalstaves":2,"instrument":"6guitar","selectedtuning":"6_standard","version":"13"}

Member for

7 months
Picture
Submitted by ShreddieVanHalen on Mon, 2021-02-22 16:22