SCALES ON TWO STRINGS

01234567891011121314151617181920212223
E
B
G
D
A
E
B
0 1 2 3 4 5 6 7 8 9 10 11 12 13 14 15 16 17 18 19 20 21 22 23
(/) Slide Up  (\) Slide Down  (h) Hammer On  (p) Pull Off  (b) Bend (r) Release (v) Vibrato

Stave 1:

E|--------5--7--10--12--10--7--5--------|--------5--6--7--10--12--10--7--6--5--------|--
B|--5--8--------------------------8--5--|--5--8--------------------------------8--5--|--
G|--------------------------------------|--------------------------------------------|--
D|--------------------------------------|--------------------------------------------|--
A|--------------------------------------|--------------------------------------------|--
E|--------------------------------------|--------------------------------------------|--

Stave 2:

E|--------5--7--10--12--10----------------|--------5--6--7--10--12--10--------------------|--
B|--5--8--------------------12--10--8--5--|--5--8-----------------------12--11--10--8--5--|--
G|----------------------------------------|-----------------------------------------------|--
D|----------------------------------------|-----------------------------------------------|--
A|----------------------------------------|-----------------------------------------------|--
E|----------------------------------------|-----------------------------------------------|--

							http://www.guitartabcreator.com
Chords

Instruments
{"strings":[[[".",".",5,7,10,12,10,7,5,".",".","|",".",".",5,6,7,10,12,10,7,6,5,".",".","|"],[5,8,".",".",".",".",".",".",".",8,5,"|",5,8,".",".",".",".",".",".",".",".",".",8,5,"|"],[".",".",".",".",".",".",".",".",".",".",".","|",".",".",".",".",".",".",".",".",".",".",".",".",".","|"],[".",".",".",".",".",".",".",".",".",".",".","|",".",".",".",".",".",".",".",".",".",".",".",".",".","|"],[".",".",".",".",".",".",".",".",".",".",".","|",".",".",".",".",".",".",".",".",".",".",".",".",".","|"],[".",".",".",".",".",".",".",".",".",".",".","|",".",".",".",".",".",".",".",".",".",".",".",".",".","|"]],[[".",".",5,7,10,12,10,".",".",".",".","|",".",".",5,6,7,10,12,10,".",".",".",".",".","|"],[5,8,".",".",".",".",".",12,10,8,5,"|",5,8,".",".",".",".",".",".",12,11,10,8,5,"|"],[".",".",".",".",".",".",".",".",".",".",".","|",".",".",".",".",".",".",".",".",".",".",".",".",".","|"],[".",".",".",".",".",".",".",".",".",".",".","|",".",".",".",".",".",".",".",".",".",".",".",".",".","|"],[".",".",".",".",".",".",".",".",".",".",".","|",".",".",".",".",".",".",".",".",".",".",".",".",".","|"],[".",".",".",".",".",".",".",".",".",".",".","|",".",".",".",".",".",".",".",".",".",".",".",".",".","|"]]],"numberofstrings":6,"notes":["E","B","G","D","A","E","B"],"capo":0,"stringnotes":["E4","B3","G3","D3","A2","E2"],"comments":["Stave 1:","Stave 2:"],"timing":[["W","W","W","W","W","W","W","W","W","W","W",null,"W","W","W","W","W","W","W","W","W","W","W","W","W"],["W","W","W","W","W","W","W","W","W","W","W",null,"W","W","W","W","W","W","W","W","W","W","W","W","W"]],"timingvisible":false,"tabcounter":26,"stave":1,"totalstaves":2,"instrument":"6guitar","selectedtuning":"6_standard","version":"13"}

Member for

9 months
Picture
Submitted by ShreddieVanHalen on Mon, 2021-03-08 20:04