Rocket Queen Bridge

01234567891011121314151617181920212223
E
B
G
D
A
E
B
0 1 2 3 4 5 6 7 8 9 10 11 12 13 14 15 16 17 18 19 20 21 22 23
(/) Slide Up  (\) Slide Down  (h) Hammer On  (p) Pull Off  (b) Bend (r) Release (v) Vibrato

Stave 1:

E|-----0-----------0--------0--------0--------------0-----------0--------0-----------0--------
B|--------9-----------7--------5--------5-----0--------9-----------7--------7--------------7--
G|--9--------9--8--------6--------6--------6-----9--------9--8--------8--------8--9-----8-----
D|--------------------------------------------------------------------------------------------
A|--------------------------------------------------------------------------------------------
E|--------------------------------------------------------------------------------------------

Stave 2:

E|-----0-----------0--------0-----------0-----------0-----------0--------0--------0--0--------
B|--------9-----------7--------5-----0-----0-----------9-----------7-----------4--------4-----
G|--9--------9--8--------6--------6-----------6--9--------9--8--------4-----4--------------4--
D|--------------------------------------------------------------------------------------------
A|--------------------------------------------------------------------------------------------
E|--------------------------------------------------------------------------------------------

Stave 3:

E|-----0-----------0--------0--------0--------------0-----------0--------0-----------0--------
B|--------9-----------7--------5--------5-----0--------9-----------7--------7--------------7--
G|--9--------9--8--------6--------6--------6-----9--------9--8--------8--------8--9-----8-----
D|--------------------------------------------------------------------------------------------
A|--------------------------------------------------------------------------------------------
E|--------------------------------------------------------------------------------------------

Stave 4:

E|-----0-----------0--------0--------0--------------0-----------0--------0--
B|--------9-----------7--------5--------5-----0--------9-----------7-----0--
G|--9--------9--8--------6--------6--------6-----9--------9--8--------4-----
D|--------------------------------------------------------------------------
A|--------------------------------------------------------------------------
E|--------------------------------------------------------------------------

							http://www.guitartabcreator.com
Chords

Instruments
{"strings":[[[".",0,".",".",".",0,".",".",0,".",".",0,".",".",".",".",0,".",".",".",0,".",".",0,".",".",".",0,".","."],[".",".",9,".",".",".",7,".",".",5,".",".",5,".",0,".",".",9,".",".",".",7,".",".",7,".",".",".",".",7],[9,".",".",9,8,".",".",6,".",".",6,".",".",6,".",9,".",".",9,8,".",".",8,".",".",8,9,".",8,"."],[".",".",".",".",".",".",".",".",".",".",".",".",".",".",".",".",".",".",".",".",".",".",".",".",".",".",".",".",".","."],[".",".",".",".",".",".",".",".",".",".",".",".",".",".",".",".",".",".",".",".",".",".",".",".",".",".",".",".",".","."],[".",".",".",".",".",".",".",".",".",".",".",".",".",".",".",".",".",".",".",".",".",".",".",".",".",".",".",".",".","."]],[[".",0,".",".",".",0,".",".",0,".",".",".",0,".",".",".",0,".",".",".",0,".",".",0,".",".",0,0,".","."],[".",".",9,".",".",".",7,".",".",5,".",0,".",0,".",".",".",9,".",".",".",7,".",".",".",4,".",".",4,"."],[9,".",".",9,8,".",".",6,".",".",6,".",".",".",6,9,".",".",9,8,".",".",4,".",4,".",".",".",".",4],[".",".",".",".",".",".",".",".",".",".",".",".",".",".",".",".",".",".",".",".",".",".",".",".",".",".",".",".",".","."],[".",".",".",".",".",".",".",".",".",".",".",".",".",".",".",".",".",".",".",".",".",".",".",".",".",".",".",".",".","."],[".",".",".",".",".",".",".",".",".",".",".",".",".",".",".",".",".",".",".",".",".",".",".",".",".",".",".",".",".","."]],[[".",0,".",".",".",0,".",".",0,".",".",0,".",".",".",".",0,".",".",".",0,".",".",0,".",".",".",0,".","."],[".",".",9,".",".",".",7,".",".",5,".",".",5,".",0,".",".",9,".",".",".",7,".",".",7,".",".",".",".",7],[9,".",".",9,8,".",".",6,".",".",6,".",".",6,".",9,".",".",9,8,".",".",8,".",".",8,9,".",8,"."],[".",".",".",".",".",".",".",".",".",".",".",".",".",".",".",".",".",".",".",".",".",".",".",".",".",".",".",".",".","."],[".",".",".",".",".",".",".",".",".",".",".",".",".",".",".",".",".",".",".",".",".",".",".",".",".",".",".",".",".","."],[".",".",".",".",".",".",".",".",".",".",".",".",".",".",".",".",".",".",".",".",".",".",".",".",".",".",".",".",".","."]],[[".",0,".",".",".",0,".",".",0,".",".",0,".",".",".",".",0,".",".",".",0,".",".",0],[".",".",9,".",".",".",7,".",".",5,".",".",5,".",0,".",".",9,".",".",".",7,".",0],[9,".",".",9,8,".",".",6,".",".",6,".",".",6,".",9,".",".",9,8,".",".",4,"."],[".",".",".",".",".",".",".",".",".",".",".",".",".",".",".",".",".",".",".",".",".",".",".","."],[".",".",".",".",".",".",".",".",".",".",".",".",".",".",".",".",".",".",".",".",".",".",".","."],[".",".",".",".",".",".",".",".",".",".",".",".",".",".",".",".",".",".",".",".",".",".",".","."]]],"numberofstrings":6,"notes":["E","B","G","D","A","E","B"],"capo":0,"stringnotes":["E4","B3","G3","D3","A2","E2"],"comments":["Stave 1:","Stave 2:","Stave 3:","Stave 4:"],"timing":[["W","W","W","W","W","W","W","W","W","W","W","W","W","W","W","W","W","W","W","W","W","W","W","W","W","W","W","W","W","W"],["W","W","W","W","W","W","W","W","W","W","W","W","W","W","W","W","W","W","W","W","W","W","W","W","W","W","W","W","W","W"],["W","W","W","W","W","W","W","W","W","W","W","W","W","W","W","W","W","W","W","W","W","W","W","W","W","W","W","W","W","W"],["W","W","W","W","W","W","W","W","W","W","W","W","W","W","W","W","W","W","W","W","W","W","W","W"]],"timingvisible":false,"tabcounter":23,"stave":3,"totalstaves":4,"instrument":"6guitar","selectedtuning":"6_standard","version":"13"}

Member for

9 months
Picture
Submitted by ShreddieVanHalen on Tue, 2021-02-16 22:46