FREE FALLIN' (Capo Third Fret)

01234567891011121314151617181920212223
E
B
G
D
A
E
B
0 1 2 3 4 5 6 7 8 9 10 11 12 13 14 15 16 17 18 19 20 21 22 23
(/) Slide Up  (\) Slide Down  (h) Hammer On  (p) Pull Off  (b) Bend (r) Release (v) Vibrato

Stave 1:

E|--2--|--3--|--3--2--|--0--
B|--3--|--3--|--3--3--|--3--
G|--2--|--2--|--2--2--|--2--
D|--0--|--0--|--0--0--|--2--
A|-----|-----|--------|--0--
E|-----|-----|--------|-----

Stave 2:

E|--------------------
B|--------------------
G|--------------------
D|--4--4--2-----2-----
A|-----------5-----5--
E|--------------------

Stave 3:

E|--------------------------------------------------
B|--------------------------------------------------
G|--------------------------------------------------
D|-----------5--5--5--5--5--5--------7--7--7--7--7--
A|--5--5--5--------------------5--5-----------------
E|--------------------------------------------------

							http://www.guitartabcreator.com
Chords

Instruments
{"strings":[[[2,"|",3,"|",3,2,"|",0],[3,"|",3,"|",3,3,"|",3],[2,"|",2,"|",2,2,"|",2],[0,"|",0,"|",0,0,"|",2],[".","|",".","|",".",".","|",0],[".","|",".","|",".",".","|","."]],[[".",".",".",".",".","."],[".",".",".",".",".","."],[".",".",".",".",".","."],[4,4,2,".",2,"."],[".",".",".",5,".",5],[".",".",".",".",".","."]],[[".",".",".",".",".",".",".",".",".",".",".",".",".",".",".","."],[".",".",".",".",".",".",".",".",".",".",".",".",".",".",".","."],[".",".",".",".",".",".",".",".",".",".",".",".",".",".",".","."],[".",".",".",5,5,5,5,5,5,".",".",7,7,7,7,7],[5,5,5,".",".",".",".",".",".",5,5,".",".",".",".","."],[".",".",".",".",".",".",".",".",".",".",".",".",".",".",".","."]]],"numberofstrings":6,"notes":["E","B","G","D","A","E","B"],"capo":0,"stringnotes":["E4","B3","G3","D3","A2","E2"],"comments":["Stave 1:","Stave 2:","Stave 3:"],"timing":[["W","W","W",null,"W","W",null,"W"],["W","W","W","W","W","W"],["W","W","W","W","W","W","W","W","W","W","W","W","W","W","W","W"]],"timingvisible":false,"tabcounter":16,"stave":2,"totalstaves":3,"instrument":"6guitar","selectedtuning":"6_standard","version":"13"}

Member for

9 months
Picture
Submitted by ShreddieVanHalen on Mon, 2021-03-08 20:50