the offspring the noose

Chords

01234567891011121314151617181920212223
E
B
G
D
A
E
B
0 1 2 3 4 5 6 7 8 9 10 11 12 13 14 15 16 17 18 19 20 21 22 23
(/) Slide Up  (\) Slide Down  (h) Hammer On  (p) Pull Off  (b) Bend (r) Release (v) Vibrato

Stave 1:

G|----------------------------------------------------------------------------------------------
D|----------------------------------------------------------------------------------------------
A|--7--7--7--7--7-----------------------------5--5--5--5--5-----5--7--7--7--9--10--10--9--9-----
E|--------------------0--3--3--3--3--3-----3----------------------------------------------------

Stave 2:

G|--------------
D|--------------
A|--------------
E|--0--0--0--0--

Stave 3:

G|--------------------------------------------------
D|--------------------------------------------------
A|--7--7--7--5--7--7--7--5--7--7--7--5--7--7--7--5--
E|--------------------------------------------------

Stave 4:

G|--------------------------------------------------------------------------------------------------
D|--------------------------------------------------------------------------------------------------
A|--7--7--7--5--7--7--7--5--------------------------5--5--5--3--5--5--5--3--7--7--7--5--7--7--7--5--
E|--------------------------3--3--3--2--3--3--3--2--------------------------------------------------

Stave 5:

G|-----------------------------------------------------------------------------
D|-----------------------------------------------------------------------------
A|--7--7--7--5--7--7--7--5--------------------------5--5--5--3--5--5--5--3--7--
E|--------------------------3--3--3--2--3--3--3--2-----------------------------

Stave 6:

G|--------------------------------------------------------------------------------------------------
D|--------------------------------------------------------------------------------------------------
A|--7--7--7--7--7--7--7--7--------------------------5--5--5--5--5--5--5--5--7--7--7--7--7--7--7--7--
E|--------------------------3--3--3--3--3--3--3--3--------------------------------------------------

Stave 7:

G|--------------------------------------------------------------------------------------------------
D|--------------------------------------------------------------------------------------------------
A|--7--7--7--7--7--7--7--7--------------------------------------------------------------------------
E|--------------------------3--3--3--3--3--3--3--3--2--2--2--2--2--2--2--2--2--2--2--2--3--3--3--3--

Stave 8:

G|--------------------------------------------------------------------------------------------------
D|--------------------------------------------------------------------------------------------------
A|--7--7--7--7--7--7--7--7--------------------------5--5--5--5--5--5--5--5--7--7--7--7--7--7--7--7--
E|--------------------------3--3--3--3--3--3--3--3--------------------------------------------------

Stave 9:

G|--------------------------------------------------------------------------------------------------
D|--------------------------------------------------------------------------------------------------
A|--7--7--7--7--7--7--7--7--------------------------5--5--5--5--5--5--5--5--7--7--7--7--7--7--7--7--
E|--------------------------3--3--3--3--3--3--3--3--------------------------------------------------

Stave 10:

G|--------------------------------------------------------------------------------------------------
D|--------------------------------------------------------------------------------------------------
A|--7--7--7--5--7--7--7--5--------------------------5--5--5--3--5--5--5--3--7--7--7--5--7--7--7--5--
E|--------------------------3--3--3--2--3--3--3--2--------------------------------------------------

Stave 11:

G|--------------------------------------------------------------------------------------------------------------------------------------
D|---------------------------------------------------------------------------------------------------------------------------------/12--
A|--7--7--7--5--7--7--7--5-----------------------------------------------------------------------5--5--5--5--5--5--5--5--5--5--5--5-----
E|--------------------------3--3--3--2--3--3--3--2--2--2--2--2--2--2--2--2--2--2--2--3--3--3--3-----------------------------------------

Stave 12:

G|--------------------------------------------------------------------------------------------------
D|--------------------------------------------------------------------------------------------------
A|--7--7--7--7--7--7--7--7--------------------------5--5--5--5--5--5--5--5--7--7--7--7--7--7--7--7--
E|--------------------------3--3--3--3--3--3--3--3--------------------------------------------------

Stave 13:

G|--------------------------------------------------------------------------------------------------
D|--------------------------------------------------------------------------------------------------
A|--7--7--7--7--7--7--7--7--------------------------5--5--5--5--5--5--5--5--7--7--7--7--7--7--7--7--
E|--------------------------3--3--3--3--3--3--3--3--------------------------------------------------

Stave 14:

G|--------------------------------------------------------------------------------------------------
D|--------------------------------------------------------------------------------------------------
A|--7--7--7--7--7--7--7--7--------------------------5--5--5--5--5--5--5--5--7--7--7--7--7--7--7--7--
E|--------------------------3--3--3--3--3--3--3--3--------------------------------------------------

Stave 15:

G|--------------------------------------------------------------------------------------------------
D|--------------------------5--5--5--5--5--5--5--5--------------------------------------------------
A|--7--7--7--7--7--7--7--7--------------------------5--5--5--5--5--5--5--5--7--7--7--7--7--7--7--7--
E|--------------------------------------------------------------------------------------------------

Stave 16:

G|--------------------------------------------------------------------------------------------------
D|--------------------------------------------------------------------------------------------------
A|--7--7--7--7--7--7--7--7--------------------------5--5--5--5--5--5--5--5--7--7--7--7--7--7--7--7--
E|--------------------------3--3--3--3--3--3--3--3--------------------------------------------------

Stave 17:

G|------------------------------------------------------------------------------------------------
D|------------------------------------------------------------------------------------------------
A|--7--7--7--7--7--7--7--7--------------------------5--5--5--5--5--5--5--5--7--7--7--7--10-----9--
E|--------------------------3--3--3--3--3--3--3--3------------------------------------------------

Stave 18:

G|--------------
D|--------------
A|--------------
E|--0--0--0--0--

Stave 19:

G|----------------------------------------
D|----------------------------------------
A|-----------------------------7--7--7--7\
E|--0--0-----0--0-----0--0----------------

Stave 20:

G|-------------------------------------------------------------------------------------------
D|-------------------------------------------------------------------------------------------
A|--7--7--7--7--7-----------------------------5--5--5--5--5-----5--7--7--7--9--10--10--9--9--
E|--------------------0--3--3--3--3--3-----3-------------------------------------------------

Stave 21:

G|-------------------------------------------------------------------------------------------
D|-------------------------------------------------------------------------------------------
A|--7--7--7--7--7-----------------------------5--5--5--5--5-----5--7--7--7--9--10--10--9--9--
E|--------------------0--3--3--3--3--3-----3-------------------------------------------------

Stave 22:

G|-------------------------------------------------------------------------
D|-------------------------------------------------------------------------
A|--5h7--7--7--7----------------------3h5--5--5--5-----5h7--7--7--7-----7--
E|-------------------2h3--3--3--3------------------------------------------

Stave 23:

G|-------------------------------------------------------------------------
D|-------------------------------------------------------------------------
A|--5h7--7--7--7----------------------3h5--5--5--5-----5h7--7--7--7-----7--
E|-------------------2h3--3--3--3------------------------------------------

Stave 24:

G|-------------------------------------------------------------------------
D|-------------------------------------------------------------------------
A|--5h7--7--7--7----------------------3h5--5--5--5-----5h7--7--7--7-----7--
E|-------------------2h3--3--3--3------------------------------------------

Stave 25:

G|------------------------------------------------------------------------------------------
D|------------------------------------------------------------------------------------------
A|--5h7--7--7--7----------------------3h5--5--5--5--5--5--5--5--7--7--7--7--10--10--10--10--
E|-------------------2h3--3--3--3-----------------------------------------------------------

Stave 26:

G|--------------------------------------------------------------------------------------------------
D|--------------------------------------------------------------------------------------------------
A|--7--7--7--7--7--7--7--7--------------------------5--5--5--5--5--5--5--5--7--7--7--7--7--7--7--7--
E|--------------------------3--3--3--3--3--3--3--3--------------------------------------------------

Stave 27:

G|--------------------------------------------------------------------------------------------------
D|--------------------------------------------------------------------------------------------------
A|--7--7--7--7--7--7--7--7--------------------------5--5--5--5--5--5--5--5--7--7--7--7--7--7--7--7--
E|--------------------------3--3--3--3--3--3--3--3--------------------------------------------------

Stave 28:

G|--------------------------------------------------------------------------------------------------
D|--------------------------5--5--5--5--5--5--5--5--------------------------------------------------
A|--7--7--7--7--7--7--7--7--------------------------5--5--5--5--5--5--5--5--7--7--7--7--7--7--7--7--
E|--------------------------------------------------------------------------------------------------

Stave 29:

G|-----------------
D|-----------------
A|-----------------
E|--0--0--0--0--0--

							http://www.guitartabcreator.com
Instruments
{"strings":[[[".",".",".",".",".","_",".",".",".",".",".",".","_",".",".",".",".",".",".","_",".",".",".",".",".",".",".",".",".","."],[".",".",".",".",".","_",".",".",".",".",".",".","_",".",".",".",".",".",".","_",".",".",".",".",".",".",".",".",".","."],[7,7,7,7,7,"_",".",".",".",".",".",".","_",".",5,5,5,5,5,"_",5,7,7,7,9,10,10,9,9,"."],[".",".",".",".",".","_",0,3,3,3,3,3,"_",3,".",".",".",".",".","_",".",".",".",".",".",".",".",".",".","."]],[[".",".",".","."],[".",".",".","."],[".",".",".","."],[0,0,0,0]],[[".",".",".",".",".",".",".",".",".",".",".",".",".",".",".","."],[".",".",".",".",".",".",".",".",".",".",".",".",".",".",".","."],[7,7,7,5,7,7,7,5,7,7,7,5,7,7,7,5],[".",".",".",".",".",".",".",".",".",".",".",".",".",".",".","."]],[[".",".",".",".",".",".",".",".",".",".",".",".",".",".",".",".",".",".",".",".",".",".",".",".",".",".",".",".",".",".",".","."],[".",".",".",".",".",".",".",".",".",".",".",".",".",".",".",".",".",".",".",".",".",".",".",".",".",".",".",".",".",".",".","."],[7,7,7,5,7,7,7,5,".",".",".",".",".",".",".",".",5,5,5,3,5,5,5,3,7,7,7,5,7,7,7,5],[".",".",".",".",".",".",".",".",3,3,3,2,3,3,3,2,".",".",".",".",".",".",".",".",".",".",".",".",".",".",".","."]],[[".",".",".",".",".",".",".",".",".",".",".",".",".",".",".",".",".",".",".",".",".",".",".",".","."],[".",".",".",".",".",".",".",".",".",".",".",".",".",".",".",".",".",".",".",".",".",".",".",".","."],[7,7,7,5,7,7,7,5,".",".",".",".",".",".",".",".",5,5,5,3,5,5,5,3,7],[".",".",".",".",".",".",".",".",3,3,3,2,3,3,3,2,".",".",".",".",".",".",".",".","."]],[[".",".",".",".",".",".",".",".",".",".",".",".",".",".",".",".",".",".",".",".",".",".",".",".",".",".",".",".",".",".",".","."],[".",".",".",".",".",".",".",".",".",".",".",".",".",".",".",".",".",".",".",".",".",".",".",".",".",".",".",".",".",".",".","."],[7,7,7,7,7,7,7,7,".",".",".",".",".",".",".",".",5,5,5,5,5,5,5,5,7,7,7,7,7,7,7,7],[".",".",".",".",".",".",".",".",3,3,3,3,3,3,3,3,".",".",".",".",".",".",".",".",".",".",".",".",".",".",".","."]],[[".",".",".",".",".",".",".",".",".",".",".",".",".",".",".",".",".",".",".",".",".",".",".",".",".",".",".",".",".",".",".","."],[".",".",".",".",".",".",".",".",".",".",".",".",".",".",".",".",".",".",".",".",".",".",".",".",".",".",".",".",".",".",".","."],[7,7,7,7,7,7,7,7,".",".",".",".",".",".",".",".",".",".",".",".",".",".",".",".",".",".",".",".",".",".",".","."],[".",".",".",".",".",".",".",".",3,3,3,3,3,3,3,3,2,2,2,2,2,2,2,2,2,2,2,2,3,3,3,3]],[[".",".",".",".",".",".",".",".",".",".",".",".",".",".",".",".",".",".",".",".",".",".",".",".",".",".",".",".",".",".",".","."],[".",".",".",".",".",".",".",".",".",".",".",".",".",".",".",".",".",".",".",".",".",".",".",".",".",".",".",".",".",".",".","."],[7,7,7,7,7,7,7,7,".",".",".",".",".",".",".",".",5,5,5,5,5,5,5,5,7,7,7,7,7,7,7,7],[".",".",".",".",".",".",".",".",3,3,3,3,3,3,3,3,".",".",".",".",".",".",".",".",".",".",".",".",".",".",".","."]],[[".",".",".",".",".",".",".",".",".",".",".",".",".",".",".",".",".",".",".",".",".",".",".",".",".",".",".",".",".",".",".","."],[".",".",".",".",".",".",".",".",".",".",".",".",".",".",".",".",".",".",".",".",".",".",".",".",".",".",".",".",".",".",".","."],[7,7,7,7,7,7,7,7,".",".",".",".",".",".",".",".",5,5,5,5,5,5,5,5,7,7,7,7,7,7,7,7],[".",".",".",".",".",".",".",".",3,3,3,3,3,3,3,3,".",".",".",".",".",".",".",".",".",".",".",".",".",".",".","."]],[[".",".",".",".",".",".",".",".",".",".",".",".",".",".",".",".",".",".",".",".",".",".",".",".",".",".",".",".",".",".",".","."],[".",".",".",".",".",".",".",".",".",".",".",".",".",".",".",".",".",".",".",".",".",".",".",".",".",".",".",".",".",".",".","."],[7,7,7,5,7,7,7,5,".",".",".",".",".",".",".",".",5,5,5,3,5,5,5,3,7,7,7,5,7,7,7,5],[".",".",".",".",".",".",".",".",3,3,3,2,3,3,3,2,".",".",".",".",".",".",".",".",".",".",".",".",".",".",".","."]],[[".",".",".",".",".",".",".",".",".",".",".",".",".",".",".",".",".",".",".",".",".",".",".",".",".",".",".",".",".",".",".",".",".",".",".",".",".",".",".",".",".",".",".",".","."],[".",".",".",".",".",".",".",".",".",".",".",".",".",".",".",".",".",".",".",".",".",".",".",".",".",".",".",".",".",".",".",".",".",".",".",".",".",".",".",".",".",".",".","/",12],[7,7,7,5,7,7,7,5,".",".",".",".",".",".",".",".",".",".",".",".",".",".",".",".",".",".",".",".",".",".",".",5,5,5,5,5,5,5,5,5,5,5,5,".","."],[".",".",".",".",".",".",".",".",3,3,3,2,3,3,3,2,2,2,2,2,2,2,2,2,2,2,2,3,3,3,3,".",".",".",".",".",".",".",".",".",".",".",".",".","."]],[[".",".",".",".",".",".",".",".",".",".",".",".",".",".",".",".",".",".",".",".",".",".",".",".",".",".",".",".",".",".",".","."],[".",".",".",".",".",".",".",".",".",".",".",".",".",".",".",".",".",".",".",".",".",".",".",".",".",".",".",".",".",".",".","."],[7,7,7,7,7,7,7,7,".",".",".",".",".",".",".",".",5,5,5,5,5,5,5,5,7,7,7,7,7,7,7,7],[".",".",".",".",".",".",".",".",3,3,3,3,3,3,3,3,".",".",".",".",".",".",".",".",".",".",".",".",".",".",".","."]],[[".",".",".",".",".",".",".",".",".",".",".",".",".",".",".",".",".",".",".",".",".",".",".",".",".",".",".",".",".",".",".","."],[".",".",".",".",".",".",".",".",".",".",".",".",".",".",".",".",".",".",".",".",".",".",".",".",".",".",".",".",".",".",".","."],[7,7,7,7,7,7,7,7,".",".",".",".",".",".",".",".",5,5,5,5,5,5,5,5,7,7,7,7,7,7,7,7],[".",".",".",".",".",".",".",".",3,3,3,3,3,3,3,3,".",".",".",".",".",".",".",".",".",".",".",".",".",".",".","."]],[[".",".",".",".",".",".",".",".",".",".",".",".",".",".",".",".",".",".",".",".",".",".",".",".",".",".",".",".",".",".",".","."],[".",".",".",".",".",".",".",".",".",".",".",".",".",".",".",".",".",".",".",".",".",".",".",".",".",".",".",".",".",".",".","."],[7,7,7,7,7,7,7,7,".",".",".",".",".",".",".",".",5,5,5,5,5,5,5,5,7,7,7,7,7,7,7,7],[".",".",".",".",".",".",".",".",3,3,3,3,3,3,3,3,".",".",".",".",".",".",".",".",".",".",".",".",".",".",".","."]],[[".",".",".",".",".",".",".",".",".",".",".",".",".",".",".",".",".",".",".",".",".",".",".",".",".",".",".",".",".",".",".","."],[".",".",".",".",".",".",".",".",5,5,5,5,5,5,5,5,".",".",".",".",".",".",".",".",".",".",".",".",".",".",".","."],[7,7,7,7,7,7,7,7,".",".",".",".",".",".",".",".",5,5,5,5,5,5,5,5,7,7,7,7,7,7,7,7],[".",".",".",".",".",".",".",".",".",".",".",".",".",".",".",".",".",".",".",".",".",".",".",".",".",".",".",".",".",".",".","."]],[[".",".",".",".",".",".",".",".",".",".",".",".",".",".",".",".",".",".",".",".",".",".",".",".",".",".",".",".",".",".",".","."],[".",".",".",".",".",".",".",".",".",".",".",".",".",".",".",".",".",".",".",".",".",".",".",".",".",".",".",".",".",".",".","."],[7,7,7,7,7,7,7,7,".",".",".",".",".",".",".",".",5,5,5,5,5,5,5,5,7,7,7,7,7,7,7,7],[".",".",".",".",".",".",".",".",3,3,3,3,3,3,3,3,".",".",".",".",".",".",".",".",".",".",".",".",".",".",".","."]],[[".",".",".",".",".",".",".",".",".",".",".",".",".",".",".",".",".",".",".",".",".",".",".",".",".",".",".",".",".","_","."],[".",".",".",".",".",".",".",".",".",".",".",".",".",".",".",".",".",".",".",".",".",".",".",".",".",".",".",".",".","_","."],[7,7,7,7,7,7,7,7,".",".",".",".",".",".",".",".",5,5,5,5,5,5,5,5,7,7,7,7,10,"_",9],[".",".",".",".",".",".",".",".",3,3,3,3,3,3,3,3,".",".",".",".",".",".",".",".",".",".",".",".",".","_","."]],[[".",".",".","."],[".",".",".","."],[".",".",".","."],[0,0,0,0]],[[".",".","_",".",".","_",".",".","_",".",".",".",".","."],[".",".","_",".",".","_",".",".","_",".",".",".",".","."],[".",".","_",".",".","_",".",".","_",7,7,7,7,"\\"],[0,0,"_",0,0,"_",0,0,"_",".",".",".",".","."]],[[".",".",".",".",".","_",".",".",".",".",".",".","_",".",".",".",".",".",".","_",".",".",".",".",".",".",".",".","."],[".",".",".",".",".","_",".",".",".",".",".",".","_",".",".",".",".",".",".","_",".",".",".",".",".",".",".",".","."],[7,7,7,7,7,"_",".",".",".",".",".",".","_",".",5,5,5,5,5,"_",5,7,7,7,9,10,10,9,9],[".",".",".",".",".","_",0,3,3,3,3,3,"_",3,".",".",".",".",".","_",".",".",".",".",".",".",".",".","."]],[[".",".",".",".",".","_",".",".",".",".",".",".","_",".",".",".",".",".",".","_",".",".",".",".",".",".",".",".","."],[".",".",".",".",".","_",".",".",".",".",".",".","_",".",".",".",".",".",".","_",".",".",".",".",".",".",".",".","."],[7,7,7,7,7,"_",".",".",".",".",".",".","_",".",5,5,5,5,5,"_",5,7,7,7,9,10,10,9,9],[".",".",".",".",".","_",0,3,3,3,3,3,"_",3,".",".",".",".",".","_",".",".",".",".",".",".",".",".","."]],[[".",".",".",".",".",".","_",".",".",".",".",".",".","_",".",".",".",".",".",".","_",".",".",".",".",".",".","_","."],[".",".",".",".",".",".","_",".",".",".",".",".",".","_",".",".",".",".",".",".","_",".",".",".",".",".",".","_","."],[5,"h",7,7,7,7,"_",".",".",".",".",".",".","_",3,"h",5,5,5,5,"_",5,"h",7,7,7,7,"_",7],[".",".",".",".",".",".","_",2,"h",3,3,3,3,"_",".",".",".",".",".",".","_",".",".",".",".",".",".","_","."]],[[".",".",".",".",".",".","_",".",".",".",".",".",".","_",".",".",".",".",".",".","_",".",".",".",".",".",".","_","."],[".",".",".",".",".",".","_",".",".",".",".",".",".","_",".",".",".",".",".",".","_",".",".",".",".",".",".","_","."],[5,"h",7,7,7,7,"_",".",".",".",".",".",".","_",3,"h",5,5,5,5,"_",5,"h",7,7,7,7,"_",7],[".",".",".",".",".",".","_",2,"h",3,3,3,3,"_",".",".",".",".",".",".","_",".",".",".",".",".",".","_","."]],[[".",".",".",".",".",".","_",".",".",".",".",".",".","_",".",".",".",".",".",".","_",".",".",".",".",".",".","_","."],[".",".",".",".",".",".","_",".",".",".",".",".",".","_",".",".",".",".",".",".","_",".",".",".",".",".",".","_","."],[5,"h",7,7,7,7,"_",".",".",".",".",".",".","_",3,"h",5,5,5,5,"_",5,"h",7,7,7,7,"_",7],[".",".",".",".",".",".","_",2,"h",3,3,3,3,"_",".",".",".",".",".",".","_",".",".",".",".",".",".","_","."]],[[".",".",".",".",".",".","_",".",".",".",".",".",".","_",".",".",".",".",".",".",".",".",".",".",".",".",".",".",".",".",".","."],[".",".",".",".",".",".","_",".",".",".",".",".",".","_",".",".",".",".",".",".",".",".",".",".",".",".",".",".",".",".",".","."],[5,"h",7,7,7,7,"_",".",".",".",".",".",".","_",3,"h",5,5,5,5,5,5,5,5,7,7,7,7,10,10,10,10],[".",".",".",".",".",".","_",2,"h",3,3,3,3,"_",".",".",".",".",".",".",".",".",".",".",".",".",".",".",".",".",".","."]],[[".",".",".",".",".",".",".",".",".",".",".",".",".",".",".",".",".",".",".",".",".",".",".",".",".",".",".",".",".",".",".","."],[".",".",".",".",".",".",".",".",".",".",".",".",".",".",".",".",".",".",".",".",".",".",".",".",".",".",".",".",".",".",".","."],[7,7,7,7,7,7,7,7,".",".",".",".",".",".",".",".",5,5,5,5,5,5,5,5,7,7,7,7,7,7,7,7],[".",".",".",".",".",".",".",".",3,3,3,3,3,3,3,3,".",".",".",".",".",".",".",".",".",".",".",".",".",".",".","."]],[[".",".",".",".",".",".",".",".",".",".",".",".",".",".",".",".",".",".",".",".",".",".",".",".",".",".",".",".",".",".",".","."],[".",".",".",".",".",".",".",".",".",".",".",".",".",".",".",".",".",".",".",".",".",".",".",".",".",".",".",".",".",".",".","."],[7,7,7,7,7,7,7,7,".",".",".",".",".",".",".",".",5,5,5,5,5,5,5,5,7,7,7,7,7,7,7,7],[".",".",".",".",".",".",".",".",3,3,3,3,3,3,3,3,".",".",".",".",".",".",".",".",".",".",".",".",".",".",".","."]],[[".",".",".",".",".",".",".",".",".",".",".",".",".",".",".",".",".",".",".",".",".",".",".",".",".",".",".",".",".",".",".","."],[".",".",".",".",".",".",".",".",5,5,5,5,5,5,5,5,".",".",".",".",".",".",".",".",".",".",".",".",".",".",".","."],[7,7,7,7,7,7,7,7,".",".",".",".",".",".",".",".",5,5,5,5,5,5,5,5,7,7,7,7,7,7,7,7],[".",".",".",".",".",".",".",".",".",".",".",".",".",".",".",".",".",".",".",".",".",".",".",".",".",".",".",".",".",".",".","."]],[[".",".",".",".","."],[".",".",".",".","."],[".",".",".",".","."],[0,0,0,0,0]]],"numberofstrings":4,"notes":["G","D","A","E"],"capo":0,"stringnotes":["G2","D2","A1","E1"],"comments":["Stave 1:","Stave 2:","Stave 3:","Stave 4:","Stave 5:","Stave 6:","Stave 7:","Stave 8:","Stave 9:","Stave 10:","Stave 11:","Stave 12:","Stave 13:","Stave 14:","Stave 15:","Stave 16:","Stave 17:","Stave 18:","Stave 19:","Stave 20:","Stave 21:","Stave 22:","Stave 23:","Stave 24:","Stave 25:","Stave 26:","Stave 27:","Stave 28:","Stave 29:"],"timing":[[null,null,null,null,null,null,null,null,null,null,null,null,null,null,null,null,null,null,null,null,null,null,null,null,null,null,null,null,null],[null,null,null,null,null,null,null,null,null,null,null],[null,null,null,null,null,null,null,null,null,null,null,null,null,null,null,null],[null,null,null,null,null,null,null,null,null,null,null,null,null,null,null,null,null,null,null,null,null,null,null,null,null,null,null,null,null,null,null,null],[null,null,null,null,null,null,null,null,null,null,null,null,null,null,null,null,null,null,null,null,null,null,null,null,null],["W","W","W","W","W","W","W","W","W","W","W","W","W","W","W","W","W","W","W","W","W","W","W","W","W","W","W","W","W","W","W","W"],["W","W","W","W","W","W","W","W","W","W","W","W","W","W","W","W","W","W","W","W","W","W","W","W","W","W","W","W","W","W","W","W"],["W","W","W","W","W","W","W","W","W","W","W","W","W","W","W","W","W","W","W","W","W","W","W","W","W","W","W","W","W","W","W","W"],["W","W","W","W","W","W","W","W","W","W","W","W","W","W","W","W","W","W","W","W","W","W","W","W","W","W","W","W","W","W","W","W"],["W","W","W","W","W","W","W","W","W","W","W","W","W","W","W","W","W","W","W","W","W","W","W","W","W","W","W","W","W","W","W","W"],["W","W","W","W","W","W","W","W","W","W","W","W","W","W","W","W","W","W","W","W","W","W","W","W","W","W","W","W","W","W","W","W","W","W","W","W","W","W","W","W","W","W","W","W","W","W"],["W","W","W","W","W","W","W","W","W","W","W","W","W","W","W","W","W","W","W","W","W","W","W","W","W","W","W","W","W","W","W","W"],["W","W","W","W","W","W","W","W","W","W","W","W","W","W","W","W","W","W","W","W","W","W","W","W","W","W","W","W","W","W","W","W"],["W","W","W","W","W","W","W","W","W","W","W","W","W","W","W","W","W","W","W","W","W","W","W","W","W","W","W","W","W","W","W","W"],["W","W","W","W","W","W","W","W","W","W","W","W","W","W","W","W","W","W","W","W","W","W","W","W","W","W","W","W","W","W","W","W"],["W","W","W","W","W","W","W","W","W","W","W","W","W","W","W","W","W","W","W","W","W","W","W","W","W","W","W","W","W","W","W","W"],["W","W","W","W","W","W","W","W","W","W","W","W","W","W","W","W","W","W","W","W","W","W","W","W","W","W","W","W","W","W","W","W"],["W","W","W","W"],["W","W",null,"W","W",null,"W","W",null,"W","W","W","W"],["W","W","W","W","W",null,"W","W","W","W","W","W",null,"W","W","W","W","W","W",null,"W","W","W","W","W","W","W","W","W"],["W","W","W","W","W",null,"W","W","W","W","W","W",null,"W","W","W","W","W","W",null,"W","W","W","W","W","W","W","W","W"],["W",null,"W","W","W","W","W","W","W","W","W","W","W",null,"W","W","W","W","W","W","W","W","W","W","W","W","W",null,"W"],["W",null,"W","W","W","W",null,"W",null,"W","W","W","W",null,"W",null,"W","W","W","W",null,"W",null,"W","W","W","W",null,"W"],["W",null,"W","W","W","W",null,"W",null,"W","W","W","W",null,"W",null,"W","W","W","W",null,"W",null,"W","W","W","W",null,"W"],["W",null,"W","W","W","W",null,"W",null,"W","W","W","W",null,"W",null,"W","W","W","W","W","W","W","W","W","W","W","W","W","W","W","W","W","W"],["W","W","W","W","W","W","W","W","W","W","W","W","W","W","W","W","W","W","W","W","W","W","W","W","W","W","W","W","W","W","W","W"],["W","W","W","W","W","W","W","W","W","W","W","W","W","W","W","W","W","W","W","W","W","W","W","W","W","W","W","W","W","W","W","W"],["W","W","W","W","W","W","W","W","W","W","W","W","W","W","W","W","W","W","W","W","W","W","W","W","W","W","W","W","W","W","W","W"],["W","W","W","W","W"]],"timingvisible":false,"tabcounter":5,"stave":28,"totalstaves":29,"instrument":"4bass","selectedtuning":"4bass","version":"13"}

Member for

1 week 5 days
Submitted by shoposho on Mon, 2020-06-29 18:07