Sound will begin in 5 seconds

In Memory of Elizabeth Reed - 2:39

01234567891011121314151617181920212223
E
B
G
D
A
E
B
0 1 2 3 4 5 6 7 8 9 10 11 12 13 14 15 16 17 18 19 20 21 22 23
Song Science #1: How Pros Use 6 Chords to Write Hit Songs
(/) Slide Up  (\) Slide Down  (h) Hammer On  (p) Pull Off  (b) Bend (r) Release (v) Vibrato

Stave 1:

E|----------------------------------------------
B|----------12----------------------------------
G|------12------12--14--12----------------------
D|--14----------------------14--12--------------
A|----------------------------------15--12------
E|------------------------------------------15--

Stave 2:

E|-----------------------------------
B|-----5--8-----5--------------------
G|--5--------7-----5--5--------------
D|-----------------------7--5--------
A|-----------------------------7--5--
E|-----------------------------------

Stave 3:

E|------------------------------------------
B|----------15------------------------------
G|------15------15--17--15--------------15--
D|--17----------------------17--15--17------
A|------------------------------------------
E|------------------------------------------

Stave 4:

E|------------------------------------
B|-----8--11------8-------------------
G|--8---------10-----8--8------8--10--
D|-------------------------10---------
A|------------------------------------
E|------------------------------------

http://www.guitartabcreator.com
Guitar Tab Creator is intended to store guitar tab created through the tool. It currently does not support in-line text editing. Any text you place in here will be lost. If you need to comment on your tab, please use the "Tab Notes" section located below.